Song name
# A B C D E F G H I J K L M N O P Q R S T U V W X Y Z

Akosh - Egyetlen Hivo Szo Eleg tab

Help us improve GuitareTab! Take a short survey!
Cím: Egyetlen hívó szó elég (akusztikus)
Előadó: Ákos
Album: Még közelebb (2007)


Intro

E-------------------------------------------------|
H-------6--------3--------------------------3-----|
G-------5--------2-----------5------5-------2-----|
D--------------------------0-------0--------------|
A-------------------------------------------------|
E----6--------3--------6---------6-------3--------|

E-------------------------------------------------|
H-------6--------3----------6----------------7----|
G-------5--------2----------5-------5--------6----|
D-------------------------0--------0--------------|
A-------------------------------------------------|
E----6--------3--------6--------6---------7-------|

E-------------------------------------------------|
H---------6--------------------7------------------|
G---------5-------5------------6------------------|
D-------0-------0---------------------------------|
A-------------------------------------------------|
E----6--------6---------7-------------------------|

eddig az intro

I.

1.
         Egyetlen      hívó    szó elég
E------------0-----------------0------------------0----------|
H--------3-------3---------3-------3----------7-------7------|
G------2---2---2---2-----2---2---2---2------6---6---6---6----|
D------------------------------------------------------------|
A----3-------------------------------------------------------|
E----------------------3------------------7------------------|


E------------------------|
H--------5--------5------|
G------4---4----4---4----|
D------------------------|
A-------------5----------|
E----5-------------------|


2.
  És rózsaszínű        derengés    lebeg
E------------0-----------------0------------------0----------|
H--------3-------3---------3-------3----------7-------7------|
G------2---2---2---2-----2---2---2---2------6---6---6---6----|
D------------------------------------------------------------|
A----3-------------------------------------------------------|
E----------------------3------------------7------------------|

E------------------------|
H--------5--------5------|
G------4---4----4---4----|
D------------------------|
A-------------5----------|
E----5-------------------|

3.
         Lüktetnek     tompa   lágy zenék
E------------0-----------------0------------------0-----------|
H--------3-------3---------3-------3----------7-------7-------|
G------2---2---2---2-----2---2---2---2------6---6---6---6-----|
D-------------------------------------------------------------|
A----3--------------------------------------------------------|
E----------------------3------------------7-------------------|

E------------------------|
H--------5--------5------|
G------4---4----4---4----|
D------------------------|
A-------------5----------|
E----5-------------------|

     Nyirkos langymeleg                   pattant új  rügyet
E------------0-----------------0------------------0-----------|
H--------3-------3---------3-------3----------7-------7-------|
G------2---2---2---2-----2---2---2---2------6---6---6---6-----|
D-------------------------------------------------------------|
A----3--------------------------------------------------------|
E----------------------3------------------7-------------------|

E------------0------------------0---|
H--------4-------4----------4-------|
G------5---5---5---5------5---5-----|
D-----------------------------------|
A-----------------------------------|
E----6------------------6-----------|

II.

1.
 A   kényelemből       elég    lesz hamar
E------------0-----------------0------------------0-----------|
H--------3-------3---------3-------3----------7-------7-------|
G------2---2---2---2-----2---2---2---2------6---6---6---6-----|
D-------------------------------------------------------------|
A----3--------------------------------------------------------|
E----------------------3------------------7-------------------|

E------------------------|
H--------5--------5------|
G------4---4----4---4----|
D------------------------|
A-------------5----------|
E----5-------------------|

2.
       Egyszerre       fájni  kezd a      lét
E------------0-----------------0------------------0-----------|
H--------3-------3---------3-------3----------7-------7-------|
G------2---2---2---2-----2---2---2---2------6---6---6---6-----|
D-------------------------------------------------------------|
A----3--------------------------------------------------------|
E----------------------3------------------7-------------------|

E------------------------|
H--------5--------5------|
G------4---4----4---4----|
D------------------------|
A-------------5----------|
E----5-------------------|

3.
   A kitelt  idő       még több fényt akar
E------------0-----------------0------------------0-----------|
H--------3-------3---------3-------3----------7-------7-------|
G------2---2---2---2-----2---2---2---2------6---6---6---6-----|
D-------------------------------------------------------------|
A----3--------------------------------------------------------|
E----------------------3------------------7-------------------|


E------------------------|
H--------5--------5------|
G------4---4----4---4----|
D------------------------|
A-------------5----------|
E----5-------------------|

     Így feszíti       szét               bársony   keretét
E------------0-----------------0------------------0-----------|
H--------3-------3---------3-------3----------7-------7-------|
G------2---2---2---2-----2---2---2---2------6---6---6---6-----|
D-------------------------------------------------------------|
A----3--------------------------------------------------------|
E----------------------3------------------7-------------------|


E------------0------------------0---|
H--------4-------4----------4-------|
G------5---5---5---5------5---5-----|
D-----------------------------------|
A-----------------------------------|
E----6------------------6-----------|

1.	Refrén

--------------------------------------------------------------|   
Óó-ó-ó-óó   Óó-ó-ó-óó   Óó-ó-ó-óó   Óó-ó-ó-óó   Óó-ó-ó-óó
E-------------------------------------------------------------|
H----6-----3-----6-----3-----6-----7-----6-----7-----6-----7--|
G----5-----2-----5-----2-----5-----6-----5-----6-----5-----6--|
D-------------------------------------------------------------|
A-------------------------------------------------------------|
E--6-----3-----6-----3-----6-----7-----6-----7-----6-----7----|


2. versszak

I.

1.
         Egyetlen      hívó    szó elég
E------------0-----------------0------------------0-----------|
H--------3-------3---------3-------3----------7-------7-------|
G------2---2---2---2-----2---2---2---2------6---6---6---6-----|
D-------------------------------------------------------------|
A----3--------------------------------------------------------|
E----------------------3------------------7-------------------|

E------------------------|
H--------5--------5------|
G------4---4----4---4----|
D------------------------|
A-------------5----------|
E----5-------------------|

2.
         Egyetlen      elomló      alak
E------------0-----------------0------------------0-----------|
H--------3-------3---------3-------3----------7-------7-------|
G------2---2---2---2-----2---2---2---2------6---6---6---6-----|
D-------------------------------------------------------------|
A----3--------------------------------------------------------|
E----------------------3------------------7-------------------|

E------------------------|
H--------5--------5------|
G------4---4----4---4----|
D------------------------|
A-------------5----------|
E----5-------------------|

3.
   A hevült  ösztön    máris   lánggal    ég
E------------0-----------------0------------------0-----------|
H--------3-------3---------3-------3----------7-------7-------|
G------2---2---2---2-----2---2---2---2------6---6---6---6-----|
D-------------------------------------------------------------|
A----3--------------------------------------------------------|
E----------------------3------------------7-------------------|

E------------------------|
H--------5--------5------|
G------4---4----4---4----|
D------------------------|
A-------------5----------|
E----5-------------------|


 Egy vétlen  mozdulat            és a     gyöngysor elszakad
E------------0-----------------0------------------0-----------|
H--------3-------3---------3-------3----------7-------7-------|
G------2---2---2---2-----2---2---2---2------6---6---6---6-----|
D-------------------------------------------------------------|
A----3--------------------------------------------------------|
E----------------------3------------------7-------------------|


E------------0------------------0---|
H--------4-------4----------4-------|
G------5---5---5---5------5---5-----|
D-----------------------------------|
A-----------------------------------|
E----6------------------6-----------|

II.

1 .
         Ziháló        párnák  közt a     nász
E------------0-----------------0------------------0-----------|
H--------3-------3---------3-------3----------7-------7-------|
G------2---2---2---2-----2---2---2---2------6---6---6---6-----|
D-------------------------------------------------------------|
A----3--------------------------------------------------------|
E----------------------3------------------7-------------------|

E------------------------|
H--------5--------5------|
G------4---4----4---4----|
D------------------------|
A-------------5----------|
E----5-------------------|

2.
       Tengernyi   kéjben      fuldokol
E------------0-----------------0------------------0-----------|
H--------3-------3---------3-------3----------7-------7-------|
G------2---2---2---2-----2---2---2---2------6---6---6---6-----|
D-------------------------------------------------------------|
A----3--------------------------------------------------------|
E----------------------3------------------7-------------------|

E------------------------|
H--------5--------5------|
G------4---4----4---4----|
D------------------------|
A-------------5----------|
E----5-------------------|

3.
         Fokozza       önmagát     a      láz
E------------0-----------------0------------------0-----------|
H--------3-------3---------3-------3----------7-------7-------|
G------2---2---2---2-----2---2---2---2------6---6---6---6-----|
D-------------------------------------------------------------|
A----3--------------------------------------------------------|
E----------------------3------------------7-------------------|

E------------------------|
H--------5--------5------|
G------4---4----4---4----|
D------------------------|
A-------------5----------|
E----5-------------------|

 Egy     hullámfodor                      mindent elsodor
E------------0-----------------0------------------0-----------|
H--------3-------3---------3-------3----------7-------7-------|
G------2---2---2---2-----2---2---2---2------6---6---6---6-----|
D-------------------------------------------------------------|
A----3--------------------------------------------------------|
E----------------------3------------------7-------------------|

E------------0------------------0---|
H--------4-------4----------4-------|
G------5---5---5---5------5---5-----|
D-----------------------------------|
A-----------------------------------|
E----6------------------6-----------|

2.Refrén

   Óó-ó-ó-óó   Óó-ó-ó-óó   Óó-ó-ó-óó     Óó-ó-ó----------------------|      Óó-ó-ó-óó
E--------------------------------------------------------------------|
H----6-----3-----6------3-----6------3-----6--------7-----6--------7-|
G----5-----2-----5------2-----5------2-----5--------6-----5--------6-|
D--------------------------------------------------------------------|
A--------------------------------------------------------------------|
E--6-----3-----6----6-3-----6----6-3-----6----6-6s7-----6----6-6s7---|


3. verszak

I.

1.
       Csöndekkel    barázdált       beszéd
E-------------------------------------------------------------|
H-------------------------------------------------------------|
G-------------------------------------------------------------|
D-------------------------------------------------------------|
A----3-----------------------------------------------------5--|
E--------------------3-------------------7------------5-------|

2.
           A boton     kopott  markolat
E------------0-----------------0------------------0-----------|
H--------3-------3---------3-------3----------7-------7-------|
G------2---2---2---2-----2---2---2---2------6---6---6---6-----|
D-------------------------------------------------------------|
A----3--------------------------------------------------------|
E----------------------3------------------7-------------------|

E------------------------|
H--------5--------5------|
G------4---4----4---4----|
D------------------------|
A-------------5----------|
E----5-------------------|

3.
         Egyetlen      hívó    szó elég
E------------0-----------------0------------------0-----------|
H--------3-------3---------3-------3----------7-------7-------|
G------2---2---2---2-----2---2---2---2------6---6---6---6-----|
D-------------------------------------------------------------|
A----3--------------------------------------------------------|
E----------------------3------------------7-------------------|

E------------------------|
H--------5--------5------|
G------4---4----4---4----|
D------------------------|
A-------------5----------|
E----5-------------------|

  És mindent     felad                  a búcsúzó     tudat
E------------0-----------------0------------------0-----------|
H--------3-------3---------3-------3----------7-------7-------|
G------2---2---2---2-----2---2---2---2------6---6---6---6-----|
D-------------------------------------------------------------|
A----3--------------------------------------------------------|
E----------------------3------------------7-------------------|

E------------0------------------0---|
H--------4-------4----------4-------|
G------5---5---5---5------5---5-----|
D-----------------------------------|
A-----------------------------------|
E----6------------------6-----------|

II.

1.
          Az elme      emléket     hadar
E------------0-----------------0------------------0-----------|
H--------3-------3---------3-------3----------7-------7-------|
G------2---2---2---2-----2---2---2---2------6---6---6---6-----|
D-------------------------------------------------------------|
A----3--------------------------------------------------------|
E----------------------3------------------7-------------------|

E------------------------|
H--------5--------5------|
G------4---4----4---4----|
D------------------------|
A-------------5----------|
E----5-------------------|
2.
         Egyszerre     fájni   kezd a lét
E------------0-----------------0------------------0-----------|
H--------3-------3---------3-------3----------7-------7-------|
G------2---2---2---2-----2---2---2---2------6---6---6---6-----|
D-------------------------------------------------------------|
A----3--------------------------------------------------------|
E----------------------3------------------7-------------------|

E------------------------|
H--------5--------5------|
G------4---4----4---4----|
D------------------------|
A-------------5----------|
E----5-------------------|

3.
  A  kitelt  idő       mégtöbb fényt akar
E------------0-----------------0------------------0-----------|
H--------3-------3---------3-------3----------7-------7-------|
G------2---2---2---2-----2---2---2---2------6---6---6---6-----|
D-------------------------------------------------------------|
A----3--------------------------------------------------------|
E----------------------3------------------7-------------------|

E------------------------|
H--------5--------5------|
G------4---4----4---4----|
D------------------------|
A-------------5----------|
E----5-------------------|

     Így feszíti    szét                  korhadt   keretét…
E------------0-----------------0------------------0----------|
H--------3-------3---------3-------3----------7-------7------|
G------2---2---2---2-----2---2---2---2------6---6---6---6----|
D------------------------------------------------------------|
A----3-------------------------------------------------------|
E----------------------3------------------7------------------|

E------------0------------------0------------------0---------|
H--------4-------4----------4-------4----------4-------4-----|
G------5---5---5---5------5---5---5---5------5---5---5---5---|
D------------------------------------------------------------|
A------------------------------------------------------------|
E----6------------------6------------------6-----------------|

E------------0------------------|
H--------4-------4--------------|
G------5---5---5---5------------|
D-------------------------------|
A-------------------------------|
E----6------------------6-------|



Készítette: Tinya Ákos

E-mail:  tinyaakos@freemail.hu

2009.
Related for Egyetlen Hivo Szo Eleg tab