Guitaretab - guitar tabs
Song name
# A B C D E F G H I J K L M N O P Q R S T U V W X Y Z

Akphaezya - Reflections tab

Guitar intro for Reflections :

d----------------------------------------------------------|
a--------8-----------------10------6/5---------------------|
f-----11----9-----------12---------8/7--7-5-7--------------|
c---9---------8-9----10----------7-7/6--------5/7-7--7-----|
g-7----------------0-----------8---8/7-----------------6-7-|
d----------------------------------------------------------|
[ Tab from: http://www.guitaretab.com/a/akphaezya/181164.html ]
d-------------------------------------------8-8--7-7--8------------------|
a-------------------------------------------7-7--6-6--7------------------|
f-------------------------------------------8-8--7-7--8------------------|
c-------------5--4---------5--------3----------------------------5-------|
g------6--5-3-----2------3-------2----0-(0)--------------------3---------|
d-5-8----------------3-1-----4-0-------------------------(0)-1-----4-0-1-|