Song name
# A B C D E F G H I J K L M N O P Q R S T U V W X Y Z

Akron Family - Before And Again tab

Hey guys. I made this tab from scratch and just learned it myself. I don't
know how it will sound to you but I am pretty sure this is right on. 
I don't know the rest of the song yet but if I learn it I will share it!


|--2p0------0-------------------|
|-------3------3----------------|
|----------------------2-------2| X4
|--0--------0----0-------2---2--|
|--------------------0-----0----|
|-------------------------------|

|-------------------------------------|
|--------1-----------------------1----|
|------2-----2------------------------|
|----2-----2-------3-----3-----3-----3|
|--0-------------3-----3-----3-----3--|
|--------------1-----1-----1----------|

|--------------------------------------------------|
|--------------------1-----------------------1-----|
|------2-----2-----2-----2-------------------------|
|----2-----2-----2-----2-------3-----3-----3-----3-|
|--0-----0-----0-------------3-----3-----3-----3---|
|--------------------------1-----1-----1-----------|
Tap to rate this tab
 
# A B C D E F G H I J K L M N O P Q R S T U V W X Y Z