Song name
# A B C D E F G H I J K L M N O P Q R S T U V W X Y Z

Akron Family - The Lightning Bolt Of Compassion tab

-----------------------------------------------------------------------------
                Lightning Bolt of Compassion - Akron family
-----------------------------------------------------------------------------
Tabbed by:JWalker
Email:friend.of.hudson@gmail.com

Tuning:standard

The picking is pretty intricate, but this is the gist of it

VERSES
e|----0-0--0-0--0-0----0-0--0-0--0-0--0-0-------|
B|-----0----0----0------0----0----0----0--------|
G|--4----2---0----------------------------------|
D|--------------------4----2----0---------------|
A|-----------------------------------2----------|
E|-3-----------------3--------------------------|


CHORUS
e|--------------------------------------------------|
B|--------------------------------------------------|
G|--4-----------------2--4-----------------2--4-----|
D|----4---------2--4-------4----------2--4----------|
A|------5--2--5--------------5--2--5----------------|
E|--------------------------------------------------|


PS I don't know what language they're singing this in, but if anyone knows the language 
better yet the lyrics you should email them to me, and I'd be eternally grateful. Peace
Tap to rate this tab
 
# A B C D E F G H I J K L M N O P Q R S T U V W X Y Z