Akron Family - Dont Be Afraid Youre Already Dead tab

-------------------------------------------------------------------------------          
Don't be afraid You're Already Dead - Akron Family
-------------------------------------------------------------------------------
Tabbed by:JWalker
Email:friend.of.hudson@gmail.com

Tuning:Standard
Capo 3rd Fret


Verse 1:
    G          Em         D           C
e|--3----------0-----------2-----------0-----------------------------------|
B|--3----------0-----------3-----------1-----------------------------------|
G|--4----------0-----------2-----------0-----------------------------------|
D|--5----------2-----------0-----------2-----------------------------------|
A|--5----------2-----------0-----------3-----------------------------------|
E|--3----------0-----------------------3-----------------------------------|
....Dont' be afraid,     It's only   Love(x4)


Chorus:
        G    Em   D    C
Love is Simple...

e|------------------------------------------------------------------------|
B|---3--5--7--0---------3-------------------------------------------------|
G|-----------------2--4----0----------------------------------------------|
D|-----------------0------------------------------------------------------|
A|-------------------------3----------------------------------------------|
E|---3--------0-----------------------------------------------------------|



Verse 2: 
Don't be afraid, You're already Dead(x4)

REPEAT CHORUS

OUTRO(da da da.....):
F   C   G
Tap to rate this tab
 
# A B C D E F G H I J K L M N O P Q R S T U V W X Y Z