Akron Family - Afford tab

-------------------------------------------------------------------------------
			     Afford - Akron Family
-------------------------------------------------------------------------------
Tabbed by:JWalker
Email:friend.of.hudson

Tuning:Standard

Intro:
    D
e|-------------------------------|
B|----3-----3------3-----3-------|
G|-------2------------2----------|
D|--0------0-----0-----0---------|
A|-------------------------------|
E|-------------------------------|
*Picking pattern throughout the song with some variations, during the D part of the 
sometimes he goes up to the 5th fret on the B string.


D                             G                     D
The power I afford you is the one I wish I had over you

Main Slide Riff:
e|--------------------------------------------------------------------------|
B|----10-10-12-10--7---7-7-7/3-3--------------------------------------------|
G|--------------------------------------------------------------------------|
D|--------------------------------------------------------------------------|
A|--------------------------------------------------------------------------|
E|--------------------------------------------------------------------------|
*Again, this is played on a slide throughout the song with slight variations- if you 
to the song you should figure it out

This isn't complete, but this is how the bulk of the song is played- Have Fun!
PS Where's all the Akron fans?!? I would think there would be more tabs up HINT HINT!!
Tap to rate this tab
 
# A B C D E F G H I J K L M N O P Q R S T U V W X Y Z