Song name
# A B C D E F G H I J K L M N O P Q R S T U V W X Y Z

Al And The Black Cats - White Cadillac tab

----------------------------------------------------------------------------
	     white cadillac = al and the black cats
----------------------------------------------------------------------------
Tabbed by: a rockabilly rebel
Email:arockabillyrebel@yahoo.com

this into is tricky to play without the music. you can find in on itunes our go
to http://alandtheblackcats.com/index2.html
i know this is right becaouse the guitar player for the band showed me how to play it

Tuning:standard

e|-------------------------------------------------------------------------|
B|-------------------------------------------------------------------------|
G|-------------------------------------------------------------------------|
D|--12--12--12--11--11--11--10--10--10--9--9--9--8-------------------------|
A|--10--10--10--9---9---9---8---8---8---7--7--7--6--------------4/5--------|
E|---------------------------------------------------6/5--5/6--------------|

e|-------------------------------------------------------------------------|
B|-------------------------------------------------------------------------|
G|-------------------------------------------------------------------------|
D|--------------------4/5--------------------------------------------------|
A|------------4/5------------4/5-------8---------6------------4/5----------|
E|-----------------------------------8----7---6------5----4----------------|

| /  slide up
| \  slide down
============================================================================
Tap to rate this tab
# A B C D E F G H I J K L M N O P Q R S T U V W X Y Z