Song name
# A B C D E F G H I J K L M N O P Q R S T U V W X Y Z

Al Bairre - Youth De Freitas tab

-------------------------------------------------------------------------------
			     Youth De Freitas - Al Bairre
-------------------------------------------------------------------------------
Tabbed by: Kai

Tuning: Standard
*Cello/Violin Intro*
This part is played over the cello and violin:
e|------8------8-------8-----8-------7-----7-----7-----7---------------------|
B|--10-----10------8------8-------8-----8-----8-----8------------------------|
G|---------------------------------------------------------------------------|  X2
D|---------------------------------------------------------------------------|
A|---------------------------------------------------------------------------|
E|---------------------------------------------------------------------------|
Verse Chords:  (repeated through the whole of the song, except the last part)
       Am       C       Em       G
e|-----5--------3--------7-------3-------------------------------------------|
B|-----5--------5--------8-------3-------------------------------------------|
G|-----5--------5--------9-------4-------------------------------------------|
D|-----7--------5--------9-------5-------------------------------------------|
A|-----7--------3--------7-------5-------------------------------------------|
E|-----5-------------------------3-------------------------------------------|

 Am          C           Em      G
All I ever wanted was to be imaginary
         A             C       Em                 G
I would hide under my bed with monsters that were scary
        Am              C            Em            G
And I'd run around the world, which soon became my room
       Am                 C            Em             G
And I wouldn't care what I'd become or who I would assume

e|------8------8-------8-----8-------7-----7-----7-----7---------------------|
B|--10-----10------8------8-------8-----8-----8-----8------------------------|
G|---------------------------------------------------------------------------|  X2
D|---------------------------------------------------------------------------|
A|---------------------------------------------------------------------------|
E|---------------------------------------------------------------------------|

e|------------------------7~--10p7-------------------------------------------|
B|--10~--10--8---------8-----------10-8-10-8---------------------------------|
G|--------------9~--9------------------------9~------------------------------|  X4
D|---------------------------------------------------------------------------|
A|---------------------------------------------------------------------------|
E|---------------------------------------------------------------------------|

 Am          C           Em      G
All I ever wanted was to be imaginary
         A             C       Em                 G
I would hide under my bed with monsters that were scary
        Am              C            Em            G
And I'd run around the world, which soon became my room
       Am                 C            Em             G
And I wouldn't care what I'd become or who I would assume

e|------8------8-------8-----8-------7-----7-----7-----7---------------------|
B|--10-----10------8------8-------8-----8-----8-----8------------------------|
G|---------------------------------------------------------------------------|  X2
D|---------------------------------------------------------------------------|
A|---------------------------------------------------------------------------|
E|---------------------------------------------------------------------------|

e|------------------------7~--10p7-------------------------------------------|
B|--10~--10--8---------8-----------10-8-10-8---------------------------------|
G|--------------9~--9------------------------9~------------------------------|  X4
D|---------------------------------------------------------------------------|
A|---------------------------------------------------------------------------|
E|---------------------------------------------------------------------------|

*Cello Interlude*

e|------12--10---------------12--10------------------------------------------|
B|--13----------12---12--13----------12--------------------------------------|
G|---------------------------------------------------------------------------|
D|---------------------------------------------------------------------------|
A|---------------------------------------------------------------------------|
E|---------------------------------------------------------------------------|
    Solo:
e|--16--14---------------14-16---16--14---------19-16----------16------------|
B|----------17--14-16-17-----------------17--14-------19-17-19---------------|
G|---------------------------------------------------------------------------|  X4
D|---------------------------------------------------------------------------|
A|---------------------------------------------------------------------------|
E|---------------------------------------------------------------------------|


************************************
| p   pull-off
Tap to rate this tab
# A B C D E F G H I J K L M N O P Q R S T U V W X Y Z