Guitaretab - guitar tabs
Song name
# A B C D E F G H I J K L M N O P Q R S T U V W X Y Z

Al Di Meola - Staccato Lick tab

This Solo is based off one Al Di Meola uses; I changed it a little bit for a less 
Chromatic feel, it is loosely based in
F# Minor Phrygian scale.



E|---------------------------------------------------------------------|
B|---------------------------------------------------------------------|
G|---------------------------------------------------------------------|
D|-------4-------5--4-7-5-4-----4-------4-------5--4-7-5-4-----4-------|
A|-4-5-7---7-5-4------------7-5---7-5-4---7-5-4------------7-5---7-4-5-|
E|---------------------------------------------------------------------|
[ Tab from: http://www.guitaretab.com/a/al-di-meola/298877.html ]
E|-----------------------------------------------------------|
B|-----------------------------------------------------------|
G|-------------------4-6-------------------------------------|
D|-4-----------4-5-7-----7-2-4-5-----7-5----5-4-2-7-5-4------|
A|---7-5-4-5-7-------------------7-9-----9-7------------7-5--|
E|-----------------------------------------------------------|

E|---------------------------------------------------------------------|
B|---------------------------------------------------------------------|
G|---------------------------------------------------------------------|
D|-------4-------5--4-7-5-4-----4-------4-------5--4-7-5-4-----4-------|
A|-4-5-7---7-5-4------------7-5---7-5-4---7-5-4------------7-5---7-4-5-|
E|---------------------------------------------------------------------|

E|-----------------------------------5-3---------------------|
B|-------------------------------5-7-----7-5-----------------|
G|-------------------4-6---4-6-7-------------7-6-4-----------|
D|-4-----------4-5-7-----7-------------------------7-5-4-----|
A|---7-5-4-5-7-------------------------------------------7-5-|
E|-----------------------------------------------------------|


Repeat as much as you'd like.
Related for Staccato Lick tab
Staccato Lick chords by Al Di Meola