Song name
# A B C D E F G H I J K L M N O P Q R S T U V W X Y Z

Al Stewart - Valentina Way tab

Al Stewart
Valentina Way

Tabbed By: Almir Nametak
mokra@starmo.co.uk

Solo has loads of bends and pull off's so apologies for bad transciption. Anyway, notes 
be correct.


Piano Intro
C, Fm x5 C


Guitar Passage:

C, Fm x5 C

E-------------------------------------------------------------------8------------------|
B--11/13-8-9/11-9-898--8-----8---------------11/13--8-9/11-9-898--8------8-------------|
G--------------------10-9-910-9/10-9----------------------------10----910-9/10-9-------|
D-----------------------------------10------------------------------------------10--10-|
A-------------------------------------11-10---------------------------------------11---|
E--------------------------------------------------------------------------------------|

C/G
Find another lover tomorrow
    F
Go find another lover today
Bb                     F
You've been so long on lonely street
          C/G                          c,b,a,
That you're surely falling into decay


G                   F
It's time to reconstruct yourself
G                           G#
Time to test the water again
         C                    G
Well it's sad to see It's a tragedy
            F
That you're wasting away

F                          G
Look around tell me Is it really
          Em
worth the price
         F
That you pay
G
On Valentina Way


(GUITAR PASSAGE)

C/G
I don't think she's ready to listen
   F
I don't think she wants to come back
Bb                     F
The atmosphere's too cold in here
   C/G                          c,b,a,
To attract a butterfly like that


G                   F
I think she took the boat-train out
G                           G#
Maybe caught the night express
         C                    G
She's got devious lies And chameleon eyes
            F
And she can't care less


F
Oh, buy yourself a ticket
   G          Em      F
On anything leaving today
G
From Valentina Way

(GUITAR PASSAGE)


Bridge:

G#    A#                    Gm              G#
Oh the rain comes down And shines up the stars
G#    A#                    Gm              G#                            Gsus    G
Oh, the night steps out In streetlights and bars To the sounds of guitars

Listen ...


Guitar solo over these chords:

C A# G# F D# A# G# X2


E-----------------------------------------------------------15--------|
B--------3-4-4/6-6\434--3----4---------686--------11-13--1113---------|
G----555-----------------5-3---------8----------10--------------------|
D-----------------------------6-5--68-8-----1012----------------------|
A---------------------------------------------------------------------|
E---------------------------------------------------------------------|


E-----------------------------------8------8------8------8--------11--|
B----(8-11/13-13-13-11-8)x3---11/13--11/13--11/13---11/13---11-9-8----|
G---------------------------------------------------------------------|
D---------------------------------------------------------------------|
A---------------------------------------------------------------------|
E---------------------------------------------------------------------|


E-----15-13-11-10-11-10------------------8------11-------13-------20--|
B-----------------------11---------------8------11-------13-----------|
G--------------------------13-12------3-5----5-8-----8-10---------17--|
D-------------------------------13---------------------------15-17----|
A---------------------------------------------------------------------|
E---------------------------------------------------------------------|

GUITAR PASSAGE UNTIL FADES AWAY.....
Tap to rate this tab
# A B C D E F G H I J K L M N O P Q R S T U V W X Y Z