Song name
# A B C D E F G H I J K L M N O P Q R S T U V W X Y Z

Al Stewart - Life In Dark Water tab

Life In Dark Water - Al Stewart

Superb Al Stewart song. Always wanted to play the solo since I first heard it back in 
late seventies.

Found the main solo elsewhere on the internet, but have updated it here and there, and 
also added the small lead guitar outro pieces at the end of the song.

My first submission of a tab, so please give me some feedback - good or bad.

Enjoy.

Symbol Key:

b - Bend
h - Hammer On
p - Pull off
~ - Vibrato
s - slide

Main Solo
=========

e|---------------------------------------------------|
B|-------10-13---11-10----------10-------------------|
G|----10---------------12-10h12--------9-10--------7-|
D|-12------------------------------12-------7-8-10---|
A|---------------------------------------------------|
E|---------------------------------------------------|

e|-13p12p10-------10----------------|-------------------------|
B|----------13-10-------------------|-------------------------|
G|-------------------12b14r12p10----|-10-12-12b14r12p10-------|
D|-------------------------------12-|-------------------12s10-|
A|----------------------------------|-------------------------|
E|----------------------------------|-------------------------|

e|-------------------------|---------------------------|
B|-------------------------|---------8-9p8-----8h10-10-|
G|-----------------------9-|-10-9-10-------10----------|
D|-----7-10-8-7-------7----|---------------------------|
A|-8-8----------10-10------|---------------------------|
E|-------------------------|---------------------------|

e|---------10------13-------16-------17-|-----9-9--9s10-10-|
B|-9----------9-------15s18----18-------|------------------|
G|---10-10------10----------------19----|-7s9--------------|
D|--------------------------------------|------------------|
A|--------------------------------------|------------------|
E|--------------------------------------|------------------|

e|-9-10-12-13-|-10----------------|
B|------------|-------10-13b15-13-|
G|------------|----10-------------|
D|------------|-------------------|
A|------------|-------------------|
E|------------|-------------------|


e|-15b17-15-13-12-13-15-------12-13-12----13p12------------|
B|----------------------13-15----------15-------15---------|
G|-------------------------------------------------14---13-|
D|---------------------------------------------------------|
A|---------------------------------------------------------|
E|---------------------------------------------------------|

e|-------------------------------13----13-16-13-16-17---13-12-10-|
B|----------------------15----15----15---------------------------|
G|----13----13-16-13-16----16------------------------------------|
D|-15----15------------------------------------------------------|
A|---------------------------------------------------------------|
E|---------------------------------------------------------------|


e|----------------------------|
B|----------------------------|
G|-12b14r12-12b14r12p10----10-|
D|----------------------12----|
A|----------------------------|
E|----------------------------|

e|-------------------------------------------------|
B|-------13-13-------13-13-------13-13-------13-13-|
G|-12s14-------12s14-------12s14-------12s14-------|
D|-------------------------------------------------|
A|-------------------------------------------------|
E|-------------------------------------------------|

e|-13----------13----------13-13----------13----13----15b17-|
B|----15p13-------15p13----------------13----13----13-------|
G|----------14----------14-------12s14----------------------|
D|----------------------------------------------------------|
A|----------------------------------------------------------|
E|----------------------------------------------------------|

e|-13----------15b17-15-13-12-13-12----------|
B|----13-13-13----------------------13-11h13-|
G|-------------------------------------------|
D|-------------------------------------------|
A|-------------------------------------------|
E|-------------------------------------------|

e|-----------------------------13-----------------|
B|-13b15r13-11-10-----------------13--------------|
G|----------------12-10-12-b14-------r12-10-12----|
D|---------------------------------------------12-|
A|------------------------------------------------|
E|------------------------------------------------|

e|-----------------------------------12----|
B|--------------------------------15----15-|
G|-10~-12----10-12-10-12s14-14-14----------|
D|--------12-------------------------------|
A|-----------------------------------------|
E|-----------------------------------------|

e|-15-13-12----12-13-12-------------12----------------------------------12-12b13-|
B|----------15----------15-14-14-15----15-13-------13-15-14----12-14-15----------|
G|-------------------------------------------15-15----------14-------------------|
D|-------------------------------------------------------------------------------|
A|-------------------------------------------------------------------------------|
E|-------------------------------------------------------------------------------|


Outro pieces
============

e|----10s12-12-10p12-13----12-------|
B|-10-------------------13----12-10-|
G|----------------------------------|
D|----------------------------------|
A|----------------------------------|
E|----------------------------------|

e|----------13-15-15p13----------------------------------------|
B|-10-13b15-------------15---b18r17-17-17s15-15-15-15s13-13-13-|
G|-------------------------------------------------------------|
D|-------------------------------------------------------------|
A|-------------------------------------------------------------|
E|-------------------------------------------------------------|

e|----13-15-15b17b17b17-b18r17-15----------------------15--------------------|
B|-13-----------------------------15-15-15-17-18-17-18----17-b18r17-15-17-18-|
G|---------------------------------------------------------------------------|
D|---------------------------------------------------------------------------|
A|---------------------------------------------------------------------------|
E|---------------------------------------------------------------------------|

e|----10-12-12b13r12-10-------------------------------------------------------13-15s17-|
B|-10----------------------------------------------------------------------15----------|
G|----------------------12b14r12-10----10-12-10-12b14r12-10-12----10-12s14-------------|
D|----------------------------------12-------------------------12----------------------|
A|-------------------------------------------------------------------------------------|
E|-------------------------------------------------------------------------------------|

e|-15p13h15-13p12h13-|
B|-------------------|
G|-------------------|
D|-------------------|
A|-------------------|
E|-------------------|
Tap to rate this tab
# A B C D E F G H I J K L M N O P Q R S T U V W X Y Z