Song name
# A B C D E F G H I J K L M N O P Q R S T U V W X Y Z

Al Stewart - Black Hill tab

Black Hill - Al Stewart Capo 2nd fret

part A
e-------10-9------0---3---------------------------------------|--------------|
b------------10----------5-----3------------------0--2--------|--------------|
g---------------------------5---------2--2_0------------2----.|--------------|
D------------------------------0--------------4--------------.|--------------|
A----0------------0----------------------------------0-----0--|--------------|
E-0-----------------------------------------------------------|--------------|

Part B                                     Part C
e--2--2--0--0------------0-----|--------|----0------------0-|---------0-----|
b--3--3--1--1--3--3------------|Repeat--|-------3---3-------|-------1----1--|
g--2--2--0--0--0--0---2-----1--|-part---|---------4---------|-----2---------|
D--0--0------------------------|--A-----|-------------------|---------------|
A--------3------------2-----2--|-once---|-------------------|---------------|
E--------------3--3------------|--------|-0------------0----|0-1------------|


e--------------------------------------------0------------|------------------|
b---0_1_0----------------------------------0------0-------|-repeat-----------|
g-------------2------2------2------------1-----------1---.|--from------------|
D-----------2-2_1_0--2_1_0--2_1_0------2--------0------2-.|-start------------|
A---------0----------0------0-----------------------------|------------------|
E-1----------------------------------0--------------------|------------------|

Part D (end)
e-------5-----3-----------------------------------------------------------|
b--------------------5-----3-----1----------------------------------------|
g----------2------------2--------------2-----0------2---2--2-2------------|
D-------------------------------------------------2-----2--2-2------------|
A-0--------------0------------0-----0-----0-----0-------0--0-0------------|
E-------------------------------------------------------------------------|


e-------------------------------------------------------------------------|
b-------------------------------------------------------------------------|
g--2--2-2-----------------------------------------------------------------|
D--2--2-2----2---2-2------------------------------------------------------|
A--0--0-0----0---0-0-----0---0--0-----------------------------------------|
E-------------------------------------------------------------------------|

A     E                          A
Hey, won't you come look at the sunrise
  D                   A
Peeping up into the blue skies
Bm                         A
Washing away the morning chill
      E                        A          G  D/F#   A
that hangs like a cloak on the Black Hill
adriemeijer@yahoo.com
Tap to rate this tab
# A B C D E F G H I J K L M N O P Q R S T U V W X Y Z