Guitaretab - guitar tabs
Song name
# A B C D E F G H I J K L M N O P Q R S T U V W X Y Z

Alabama 3 - Let The Caged Bird Sing tab

                            Artist: Alabama 3
                            Song: Let The Caged Bird Sing


Tuning  EBEG#B  capo 5th fret. This puts the guitar in open A=AEAC#E.
(Works Better With An Acoustic Guitar.)

Intro:

Play This Part 4 Times

E |-------------------------------------------------------------------------|
B |-------------------------------------------------------------------------|
G#|-------------------------------------------------------------------------|
E |---------------3b--------------------------------------------------------|
B |-3-h--5--5--5-----0--0-h3--3---------------------------------------------|
E |-0----0--0--0-----0--0-----0---------------------------------------------|

E |-------------------------------------------------------------------------|
B |------------------------------0h3----------------------------------------|
G#|---------------------11---12---------------------------------------------|
E |-10-h12--12--12--12-------X--------0-------------------------------------|
B |---------0--------0-------0--------0-------------------------------------|
E |-0-------0----0---0---0---0--0-----0-------------------------------------|

E |-------------------------------------------------------------------------|
B |---------------------12-------5------------------------------------------|
G#|---------------------12-------5------------------------------------------|
E |-10-h12--12--12--12-------0-------0--------------------------------------|
B |---------0--------0-------0-------0--------------------------------------|
E |-0-------0----0---0---0---0---0---0--------------------------------------|

Verse:
(Hands Of A Missionary...)

Play This Part 7 Times
[ Tab from: http://www.guitaretab.com/a/alabama-3/100327.html ]
E |-------------------------------------------------------------------------|
B |----------------------------0--------------------------------------------|
G#|----------------------------0--1-----------------------------------------|
E |-0--0-X--0--0-X--0--0-X--0--0--0-----------------------------------------|
B |----0-X-----0-X-----0-X--------2-----------------------------------------|
E |-0--0-X--0--0-X--0--0-X--0-----0-----------------------------------------|

E |-------------------------------------------------------------------------|
B |----------0--------0-----------------------------------------------------|
G#|----1-----1--1-----0-----------------------------------------------------|
E |-0--2--2--2--0--0--0-0-X--0-X--0-----------------------------------------|
B |----3--------2-------0-X----X--0-----------------------------------------|
E |-0--0--0-----0--0----0-X--0-X--0-----------------------------------------|


Chrous:
(Blow Out The Candle)

Play This Part 3 Times

E |-------------------------------------------------------------------------|
B |----2--2-h3p2--0------0--------------------------------------------------|
G#|----1--1---1----------X--------------------------------------------------|
E |-0--0------0-----h7---7--0-X--0-X----------------------------------------|
B |----0------0----------0-------0-X----------------------------------------|
E |-0--0--0---0---0------0--0-X--0-X----------------------------------------|

Play This Part 4 Times

E |-------------------------------------------------------------------------|
B |----3--3p0--0------------------------------------------------------------|
G#|----1--1p0--X------------------------------------------------------------|
E |-0--2--2p0--7--0-X--0-X--------------------------------------------------|
B |----0--0----0-------0-X--------------------------------------------------|
E |-0--0--0----0--0-X--0-X--------------------------------------------------|

Solo:

Repeat The Solo And Chorus, Variery It So It Sounds Similar.
Related for Let The Caged Bird Sing tab