Alabama 3 - Too Sick To Pray tab

This is a simple mapping out of Too Sick to Pray from A3's Last Train to Mashville 
album.  It is in standard tuning although the guitarist for the acoustic gigs, Rock Freebase, 
plays in some difficult and ridiculous tuning.


Into riff:

E|-----------------------------------|
B|-----0--0-----0--0-----0-------0---|  Repeat 5x
G|-----------------------------------|
D|--0--------4--------------2--4-----|
A|--2--------2--------2--------------|
E|--------------------0--------------|

Verse and Chorus have same pattern
  E|-----------------------------------|
o B|-----0--0-----0--0-----0-------0---|
  G|-----------------------------------|
  D|--0--------4--------------2--4-----|
o A|--2--------2--------2--------------|
  E|--------------------0--------------|

-----------------------------------|
-----------------------------------| o  repeat x2
-----------------------------------|
-----2-----2--------2-----------0--| o
--------2-----------------0--2-----|
--0-------------0------------------|

The at "Winter's walking up the avenue" :
E|-----------------------------------|
B|-----0--0-----0--0-----0-------0---|
G|-----------------------------------|
D|--0--------4--------------2--4-----|
A|--2--------2--------2--------------|
E|--------------------0--------------|

E|-----------------------------------|
B|-----------------------------------|
G|-----------------------------------|
D|-----2-----2--------2-----0--------|
A|--------2--------------------4-----|
E|--0-------------0---------------3--|

E|-----------------------------|
B|-----------------------------|
G|-----------------------------|
D|--0-----0-----0-----0--------|
A|--2-----2-----2-----2--------|
E|-----3-----3-----3-----3-----|

E|----------------------------|
B|----------------------------|
G|----------------------------|
D|--2-----2-----2-------------|
A|--4-----4-----4-------------|
E|-----5-----5----------------|




Verse

Chorus

Verse

Chorus

D Wayne Interlude

Chorus
Tap to rate this tab
 
# A B C D E F G H I J K L M N O P Q R S T U V W X Y Z