Song name
# A B C D E F G H I J K L M N O P Q R S T U V W X Y Z

Alabama Shakes - Hang Loose tab

Standard Tuning

This seems to be the tab for the studio recording. The timing on
the tab isn't accurate at all but it's not hard to figure out.
There's also a couple of notes that the guitarist adds in that I probably
didn't catch, so you can figure that out if you are so inclined.

(0:00)
|-----------------|
|-----------------|
|-----------------|     Intro
|---------------2-|
|---------2--2h4--|
|-0-0-2h4---------|


(0:02)
|--------------------------------|
|--------------------------------|
|--------------------------------| x16
|--------9-------9-----2-----2---|          Riff
|--/9h11----9h11----\2---2h4-----|
|--------------------------------|


(0:34)
|--9--9---9------9--9---9------9--9---9----9--9---9----|
|--9--9---9------9--9---9------9--9---9----9--9---9----|
|--9--9---9--9---9--9---9--9---9--9---9----9--9---9----|
|--10-10--10-9---10-10--10-9---9--9---9----9--9---9----|
|------------------------------------------------------|
|------------------------------------------------------|   Chorus

|--9--9---9------9--9---9------------------------------------------|
|--9--9---9------9--9---9------9-9-9-9-9-9-9-9-9-9-9-9-9-9-9-------|
|--9--9---9--9---9--9---9--9---9-9-9-9-9-9-9-9-9-9-9-9-9-9-9-------|
|--10-10--10-9---10-10--10-9---9-9-9-9-9-9-9-9-9-9-9-9-9-9-9------9|
|------------------------------------------------------------9h11--|
|------------------------------------------------------------------|


(0:50)
|--------------------------------|
|--------------------------------|
|--------------------------------| x12
|--------9-------9-----2-----2---|          Riff
|--/9h11----9h11----\2---2h4-----|
|--------------------------------|


(1:14)
|--9--9---9------9--9---9------9--9---9----9--9---9----|
|--9--9---9------9--9---9------9--9---9----9--9---9----|
|--9--9---9--9---9--9---9--9---9--9---9----9--9---9----|
|--10-10--10-9---10-10--10-9---9--9---9----9--9---9----|
|------------------------------------------------------|
|------------------------------------------------------|   Chorus

|--9--9---9------9--9---9---------------------------------------|
|--9--9---9------9--9---9------9-9-9-9-9-9-9-9-9-9-9-9-9-9-9-9--|
|--9--9---9--9---9--9---9--9---9-9-9-9-9-9-9-9-9-9-9-9-9-9-9-9--|
|--10-10--10-9---10-10--10-9---9-9-9-9-9-9-9-9-9-9-9-9-9-9-9-9--|
|---------------------------------------------------------------|
|---------------------------------------------------------------|


(1:30)
|---------------------------------------------------|
|--10-10-10-10-10-10-10-10-10-10-10-10-12-12-12-12--|
|--11-11-11-11--9--9--9--9-11-11-11-11-13-13-13-13--|
|--11-11-11-11-11-11-11-11-11-11-11-11-13-13-13-13--|
|---------------------------------------------------|
|---------------------------------------------------|  Bridge

|-----------------------------------|
|--9-9-9-9-9-9-9-9-9-9-9-9-9-9-9-9--|
|--9-9-9-9-9-9-9-9-9-9-9-9-9-9-9-9--|
|--9-9-9-9-9-9-9-9-9-9-9-9-9-9-9-9--|
|-----------------------------------|
|-----------------------------------|

|-----------------------------------------|
|--10----10-10-10-10-10-10-10-10-10--/12--|
|--11----11--9--9--9--9-11-11-11-11--/13--|
|--11----11-11-11-11-11-11-11-11-11--/13--|
|-----------------------------------------|
|-----------------------------------------|   Bridge

|--------------------------------------------|
|--9-9-9-9-9-9-9-9-9-9-9---------------------|
|--9-9-9-9-9-9-9-9-9-9-9---------------------|
|--9-9-9-9-9-9-9-9-9-9-9-9h11-9h11-9h11-9----|
|-----------------------------------------11-|
|--------------------------------------------|


(1:46)
|--------------------------------|
|--------------------------------|
|--------------------------------| x16
|--------9-------9-----2-----2---|          Riff
|--/9h11----9h11----\2---2h4-----|
|--------------------------------|


Enjoy. Alabama Shakes is awesome.
Tap to rate this tab
# A B C D E F G H I J K L M N O P Q R S T U V W X Y Z