Song name
# A B C D E F G H I J K L M N O P Q R S T U V W X Y Z

Alabama Shakes - Always Alright tab

This is the Intro Part of the rhythm guitar. I'll maybe do the whole song later. 
Have fun, please rate :)



e|----------------------------------|-------------------------------------|
B|----------------------------------|-------------------------------------|
G|----------------------------------|-------------------------------------|
D|----------------------------------|-------------------------------------|
A|--2--2-2--2--2-2--2--2-2--2--2-2--|--2--2-2--2---2-2--2--2-2--2h4-4-4---|
E|--0--0-0--4--4-4--0--0-0--4--4-4--|--0--0-0--0h4-4-4--0--0-0--0---0-0---|
pm  .  . .  .  . .  .  . .  .  . .     .  . .  .   . .  .  . .      . .


e|----------------------------------|-------------------------------------|
B|----------------------------------|-------------------------------------|
G|----------------------------------|-------------------------------------|
D|--2--2-2--2--2-2--2--2-2--2--2-2--|--2--2-2--2---2-2--2--2-2--2h4-4-4---|
A|--0--0-0--4--4-4--0--0-0--4--4-4--|--0--0-0--0h4-4-4--0--0-0--0---0-0---|
E|----------------------------------|-------------------------------------|
pm  .  . .  .  . .  .  . .  .  . .     .  . .  .   . .  .  . .      . .
Tap to rate this tab
 
# A B C D E F G H I J K L M N O P Q R S T U V W X Y Z