Song name
# A B C D E F G H I J K L M N O P Q R S T U V W X Y Z

Alabama Shakes - Rise To The Sun tab

Artist: The Alambama Shakes
Song: Rise To The Sun
Tabbed By: jrod123

Intro 
e|-----------------------------------------------------------------||
B|-----------------------------------------------------------------||
G|-----------------------------------------------------------------||
D|-----------------------------------------------------------------||
A|-----------------------------------------------------------------||
E|---3-3-3-3-3-3-3-3-3-3-3-3-3-3-----------------------------------||

e|-3--3--3---------------------------------------------------------||
B|-3--3--3---------------------------------------------------------||
G|-4--4--4---------------------------------------------------------||
D|-5--5--5---------------------------------------------------------||
A|-5--5--5---------------------------------------------------------||
E|-3--3--3---------------------------------------------------------||

Guitar 1
e|--7--7-6-5/----5----5--6--7--------------------------------------||
B|--0--0-0-0/----5----5--5--0--------------------------------------||
G|--7--7-6-5/----7----7--7--7--------------------------------------||
D|-----------------------------------------------------------------||
A|-----------------------------------------------------------------||
E|-----------------------------------------------------------------||

Guitar 2
e|---------3-------------------------------------------------------||
B|---------3-------------------------------------------------------||
G|---------4--3--2--22222---77777----------------------------------||
D|--55555--5--4----------------------------------------------------||
A|-----------------------------------------------------------------||
E|-----------------------------------------------------------------||

e|---------3--3----------------------------------------------------||
B|---------3--3----------------------------------------------------||
G|---------4--4-4/2--22222---77777---------------------------------||
D|--55555--5-------------------------------------------------------||
A|-----------------------------------------------------------------||
E|-----------------------------------------------------------------||

Pre-Chorus
e|-3--3--3---------------------------------------------------------||
B|-3--3--3---------------------------------------------------------||
G|-4--4--4----0-0-0------------------------------------------------||
D|-5--5--5----2-2-2------------------------------------------------||
A|-5--5--5----2-2-2------------------------------------------------||
E|-3--3--3----0-0-0------------------------------------------------||

Chorus
e|-----------------------------------------------------------------||
B|-----------------------------------------------------------------||
G|-----------------------------------------------------------------||
D|---555555-----44444-------------------55555----------------------||
A|---------77777-----55555-2220002225555---------------------------||
E|-----------------------------------------------------------------||

Solo
e|-----------------------------------------------------------------||
B|-----------------------------------------------------------------|| 
G|---------7---7---7---7-------7---7---7---7-----------------------||
D|----9------9---9---9---9/7-----9---9---9---7b9-------------------||
A|-----------------------------------------------------------------||
E|-----------------------------------------------------------------||
Tap to rate this tab
# A B C D E F G H I J K L M N O P Q R S T U V W X Y Z