Song name
# A B C D E F G H I J K L M N O P Q R S T U V W X Y Z

Alabama Thunderpussy - Words Of A Dying Man tab

Words of a Dying Man by Alabama Thunderpussy

Drop D Tuning

e----------------------------------|
B----------------------------------|
G-5p3p0-5p3p0----------------------| play this before every 
D-------------5p3p0-5p3h5p3h5p3----| section below
A-------------------------------5--|
D----------------------------------|

e--------------|------------|-------------------------------------|
B--------------|------------|-------------------------------------|
G-3-5-3--------|-5----------|3-5-3-------3-2----------------------|
D-3-5-3-3-3/5--|-5-3-3-3/4--|3-5-3-3-3/5-3-2-5-3-2-0--------------|
A-1-3-1-3-3/5--|-3-3-3-3/4--|1-3-1-3-3/5-1-0-5-3-2-0--------------|
D-------3-3/5--|---3-3-3/4--|------3-3/5-----5-3-2-0-3p2p0-10b-5--|

I'm working on the rest of the song but here's what I have so far

Any corrections please comment
Thanks
Tap to rate this tab
# A B C D E F G H I J K L M N O P Q R S T U V W X Y Z