Alabama - Words At Twenty Paces tab

-----------------------------------------------------------------------------
	       Words At Twenty Paces - Alabama (GUITAR)
                       
-----------------------------------------------------------------------------
Tabbed by: Scotto10

Tuning: Standard

=============================================================================

Guitar



     W                   W                   W                 
E||-------------------|-------------------|-------------------|
B||-------------------|-------------------|-------------------|
G||-------------------|-------------------|-------------------|
D||-------------------|-------------------|-------------------|
A||--3----------------|--L----------------|--1----------------|
E||-------------------|-------------------|-------------------|


  W                   W                   W                   W                 
-------------------|-------------------|-------------------|-------------------|
-------------------|-------------------|-------------------|-------------------|
-------------------|-------------------|-------------------|-------------------|
-------------------|-------------------|-------------------|-------------------|
--L----------------|-------------------|-------------------|-------------------|
-------------------|--4----------------|--L----------------|--3----------------|


          E  E  E  E  E  Q.        Q.     H        E     E  E  E  E  E  Q.      
-------|--------------3---------|---------------------|--------------3---------|
-------|--4-----4-----4--4------|--L------------------|--4-----4-----4--4------|
-------|--5-----5-----3--5------|--L------------------|--5-----5-----3--5------|
-------|--5-----5-----5--5------|--L------------------|--5-----5-----5--5------|
-------|--3-----3--------3------|--L------------------|--3-----3--------3------|
-------|------------------------|---------------------|------------------------|


  Q.     H        E     Q.     E  Q.     E     Q.     E  H         
---------------------|--3------3--3------3--|---------3--3--------|
--L------------------|--4------4--4------4--|---------4--4--------|
--L------------------|--5------5--5------5--|---------5--5--------|
--L------------------|--5------5--5------5--|---------5--5--------|
--L------------------|--3------3--3------3--|---------3--3--------|
---------------------|----------------------|---------------------|


  Q.     E  Q.     E     Q.     E  H           Q.     E  Q.     E   
--3------3--3------3--|---------3--3--------|--4------4--4------4--|
--3------3--3------3--|---------3--3--------|--4------4--4------4--|
--3------3--3------3--|---------3--3--------|--5------5--5------5--|
--3------3--3------3--|---------3--3--------|--6------6--6------6--|
--1------1--1------1--|---------1--1--------|--6------6--6------6--|
----------------------|---------------------|--4------4--4------4--|


  Q.     E  H           Q.     E  Q.     E     Q.     E  H         
---------4--4--------|--3------3--3------3--|---------3--3--------|
---------4--4--------|--3------3--3------3--|---------3--3--------|
---------5--5--------|--4------4--4------4--|---------4--4--------|
---------6--6--------|--5------5--5------5--|---------5--5--------|
---------6--6--------|--5------5--5------5--|---------5--5--------|
---------4--4--------|--3------3--3------3--|---------3--3--------|


  Q.     E  Q.     E     Q.     E  H           Q.     E  Q.     E   
--3------3--3------3--|---------3--3--------|--3------3--3------3--|
--4------4--4------4--|---------4--4--------|--3------3--3------3--|
--5------5--5------5--|---------5--5--------|--3------3--3------3--|
--5------5--5------5--|---------5--5--------|--3------3--3------3--|
--3------3--3------3--|---------3--3--------|--1------1--1------1--|
----------------------|---------------------|----------------------|


  Q.     E  H           Q.     E  Q.     E     Q.     E  H         
---------3--3--------|--4------4--4------4--|---------4--4--------|
---------3--3--------|--4------4--4------4--|---------4--4--------|
---------3--3--------|--5------5--5------5--|---------5--5--------|
---------3--3--------|--6------6--6------6--|---------6--6--------|
---------1--1--------|--6------6--6------6--|---------6--6--------|
---------------------|--4------4--4------4--|---------4--4--------|


  Q.     E  Q.     E     Q.     E  Q    Q       Q    Q    Q    Q     
--3------3--3------3--|---------3--3----3----|-------3---------3----|
--3------3--3------3--|---------3--3----3----|--4----4----4----4----|
--4------4--4------4--|---------4--4----4----|--5----5----5----5----|
--5------5--5------5--|---------5--5----5----|--5----5----5----5----|
--5------5--5------5--|---------5--5----5----|--3----3----3----3----|
--3------3--3------3--|---------3--3----3----|----------------------|


  Q    E  E  Q    Q       Q.     E  Q.     E     Q    E  Q    Q    E   
-------3----------3----|---------6---------6--|--------------------6--|
--4----4--4--4----4----|---------6---------6--|----------6----6----6--|
--5----5--5--5----5----|--7------7--7------7--|--7-------7----7----7--|
--5----5--5--5----5----|--8------8--8------8--|--8-------8----8----8--|
--3----3--3--3----3----|--8------8--8------8--|--8-------8----8----8--|
-----------------------|--6------6--6------6--|--6-------6----6----6--|


  Q    Q    Q    Q       Q    E  E  Q    Q       Q    Q    Q    Q     
-------4---------4----|-------4----------4----|-------3---------3----|
-------4---------4----|-------4----------4----|-------3---------3----|
--5----5----5----5----|--5----5--5--5----5----|--4----4----4----4----|
--6----6----6----6----|--6----6--6--6----6----|--5----5----5----5----|
--6----6----6----6----|--6----6--6--6----6----|--5----5----5----5----|
--4----4----4----4----|--4----4--4--4----4----|--3----3----3----3----|


  Q.     Q    Q    E     Q    Q    Q    Q       Q    E  E  Q    Q     
--------------3----3--|-------3---------3----|-------3----------3----|
---------3----3----3--|--4----4----4----4----|--4----4--4--4----4----|
--4------4----4----4--|--5----5----5----5----|--5----5--5--5----5----|
--5------5----5----5--|--5----5----5----5----|--5----5--5--5----5----|
--5------5----5----5--|--3----3----3----3----|--3----3--3--3----3----|
--3------3----3----3--|----------------------|-----------------------|


  Q.     E  Q.     E     Q    E  Q    Q    E     Q    Q    Q    Q     
---------6---------6--|--------------------6--|-------4---------4----|
---------6---------6--|----------6----6----6--|-------4---------4----|
--7------7--7------7--|--7-------7----7----7--|--5----5----5----5----|
--8------8--8------8--|--8-------8----8----8--|--6----6----6----6----|
--8------8--8------8--|--8-------8----8----8--|--6----6----6----6----|
--6------6--6------6--|--6-------6----6----6--|--4----4----4----4----|


  Q    E  E  E  E  Q       H.           Q       Q.     H        E   
-------4-----------4----|--3-----------------|--3------3--------L--|
-------4-----------4----|--3-----------------|--4------3--------L--|
--5----5--5--5-----5----|--4-----------------|--5------3--------L--|
--6----6--6--6-----6----|--5-----------------|--5------3--------L--|
--6----6--6--6--6--6----|--5-----------------|--3------3--------L--|
--4----4--4--4--4--4----|--3-----------------|---------------------|


  Q.     H        E     Q.     H        E     H        H         
--3------3--------L--|--3------3--------L--|--3--------3--------|
--4------3--------L--|--4------3--------L--|--4--------3--------|
--5------3--------L--|--5------3--------L--|--5--------3--------|
--5------3--------L--|--5------3--------L--|--5--------3--------|
--3------3--------L--|--3------3--------L--|--3--------3--------|
---------------------|---------------------|--------------------|


  Q.     E  Q    Q       Q.     E  Q    Q       Q.     E  Q    Q     
----------------------|----------------------|--3------3--3----3----|
--4------4--4----4----|--4------4--4----4----|--4------4--4----4----|
--5------5--5----5----|--5------5--5----5----|--3------3--3----3----|
--6------6--6----6----|--6------6--6----6----|--5------5--5----5----|
--6------6--6----6----|--6------6--6----6----|--6------6--6----6----|
--4------4--4----4----|--4------4--4----4----|----------------------|


  Q.     E  Q    Q       Q.     E  Q    Q       Q.     E  Q    Q             
--3------3--3----3----|----------------------|----------------------|-------|
--4------4--4----4----|--6------6--6----6----|--8------8--8----8----|-------|
--3------3--3----3----|--7------7--7----7----|--7------7--7----7----|-------|
--5------5--5----5----|--8------8--8----8----|--5------5--5----5----|-------|
--6------6--6----6----|--8------8--8----8----|----------------------|-------|
----------------------|--6------6--6----6----|--7------7--7----7----|-------|


          Q.     E  Q    Q       Q.     E  Q    Q       Q.     E  Q    Q     
-------|----------------------|----------------------|--3------3--3----3----|
-------|--4------4--4----4----|--4------4--4----4----|--4------4--4----4----|
-------|--5------5--5----5----|--5------5--5----5----|--3------3--3----3----|
-------|--6------6--6----6----|--6------6--6----6----|--5------5--5----5----|
-------|--6------6--6----6----|--6------6--6----6----|--6------6--6----6----|
-------|--4------4--4----4----|--4------4--4----4----|----------------------|


  Q.     E  Q    Q       Q.     E  Q    Q       Q.     E  Q    Q     
--3------3--3----3----|----------------------|----------------------|
--4------4--4----4----|--6------6--6----6----|--6------6--6----6----|
--3------3--3----3----|--7------7--7----7----|--7------7--7----7----|
--5------5--5----5----|--8------8--8----8----|--8------8--8----8----|
--6------6--6----6----|--8------8--8----8----|--8------8--8----8----|
----------------------|--6------6--6----6----|--6------6--6----6----|


  Q.     E  Q    Q       Q.     E  Q    Q       Q.     E  Q    Q     
--3------3--3----3----|--3------3--3----3----|--3------3--3----3----|
--3------3--3----3----|--3------3--3----3----|--3------3--3----3----|
--4------4--4----4----|--4------4--4----4----|--4------4--4----4----|
--5------5--5----5----|--5------5--5----5----|--5------5--5----5----|
--5------5--5----5----|--5------5--5----5----|--5------5--5----5----|
--3------3--3----3----|--3------3--3----3----|--3------3--3----3----|


  Q    E  E  E  Q.        H.           Q       Q    E  E  E  Q.      
-------------3---------|--------------------|-------------3---------|
--4----------4--4------|--L-----------------|--4----4-----4--4------|
--5----------3--5------|--L-----------------|--5----5-----3--5------|
--5----------5--5------|--L-----------------|--5----5-----5--5------|
--3-------------3------|--L-----------------|--3----3--------3------|
-----------------------|--------------------|-----------------------|


  H.           Q       W                   H        H         
--------------------|--3----------------|--L-----------------|
--L-----------------|--4----------------|--L-----------------|
--L-----------------|--5----------------|--L-----------------|
--L-----------------|--5----------------|--L-----------------|
--L-----------------|--3----------------|--L-----------------|
--------------------|-------------------|--L-----------------|


  W                   H        H           W                 
--3----------------|--L-----------------|--4----------------|
--3----------------|--L-----------------|--4----------------|
--3----------------|--L-----------------|--5----------------|
--3----------------|--L-----------------|--6----------------|
--1----------------|--L-----------------|--6----------------|
-------------------|--------------------|--4----------------|


  H        H           W                   H        H         
--L-----------------|--3----------------|--L-----------------|
--L-----------------|--3----------------|--L-----------------|
--L-----------------|--4----------------|--L-----------------|
--L-----------------|--5----------------|--L-----------------|
--L-----------------|--5----------------|--L-----------------|
--L-----------------|--3----------------|--L-----------------|


  H        H           Q    Q    Q    Q       Q    Q    Q    Q     
--3--------3--------|-------3---------3----|-------3---------3----|
--4--------4--------|--4----4----4----4----|--3----3----3----3----|
--5--------5--------|--5----5----5----5----|--3----3----3----3----|
--5--------5--------|--5----5----5----5----|--3----3----3----3----|
--3--------3--------|--3----3----3----3----|--1----1----1----1----|
--------------------|----------------------|----------------------|


  Q    Q    Q    Q       Q    Q    Q    Q       Q    Q    Q    Q     
-------3---------3----|-------4---------4----|-------4---------4----|
--3----3----3----3----|--4----4----4----4----|--4----4----4----4----|
--3----3----3----3----|--5----5----5----5----|--5----5----5----5----|
--3----3----3----3----|--6----6----6----6----|--6----6----6----6----|
--1----1----1----1----|--6----6----6----6----|--6----6----6----6----|
----------------------|--4---------4---------|--4---------4---------|


  Q    Q    Q    Q       E  E  Q    E  E  E  E     Q    Q    Q    Q     
-------3---------3----|--3--3--3----3--3--3--3--|-------3---------3----|
--3----3---------3----|--3--3--3----3--3--3--3--|--4----4----4----4----|
--4----4----4----4----|--4--4--4----4--4--4--4--|--5----5----5----5----|
--5----5----5----5----|--5--5--5----5--5--5--5--|--5----5----5----5----|
--5----5----5----5----|--5--5--5----5--5--5--5--|--3----3----3----3----|
--3---------3---------|--3--3--3----3--3--3--3--|----------------------|


  Q    E  E  Q    Q       Q.     E  Q.     E     Q    E  Q    Q    E   
-------3----------3----|---------6---------6--|--------------------6--|
--4----4--4--4----4----|---------6---------6--|----------6----6----6--|
--5----5--5--5----5----|--7------7--7------7--|--7-------7----7----7--|
--5----5--5--5----5----|--8------8--8------8--|--8-------8----8----8--|
--3----3--3--3----3----|--8------8--8------8--|--8-------8----8----8--|
-----------------------|--6------6--6------6--|--6-------6----6----6--|


  Q    Q    Q    Q       Q    E  E  E  Q    E     Q    Q    Q    Q     
-------4---------4----|----------4----------4--|-------3---------3----|
-------4---------4----|----------4----------4--|-------3---------3----|
--5----5----5----5----|--5-------5--5--5----5--|--4----4----4----4----|
--6----6----6----6----|--6-------6--6--6----6--|--5----5----5----5----|
--6----6----6----6----|--6-------6--6--6----6--|--5----5----5----5----|
--4----4----4----4----|--4-------4--4--4----4--|--3----3----3----3----|


  Q    E  E  E  E  E  E     Q    Q    Q    Q       Q    E  E  Q    Q     
----------3-----3-----3--|-------3---------3----|-------3----------3----|
----------3-----3-----3--|--4----4----4----4----|--4----4--4--4----4----|
--4----4--4--4--4--4--4--|--5----5----5----5----|--5----5--5--5----5----|
--5----5--5--5--5--5--5--|--5----5----5----5----|--5----5--5--5----5----|
--5----5--5--5--5--5--5--|--3----3----3----3----|--3----3--3--3----3----|
--3----3--3--3--3--3--3--|----------------------|-----------------------|


  Q.     E  Q.     E     Q    E  Q    Q    E     Q    Q    Q    Q     
---------6---------6--|--------------------6--|-------4---------4----|
---------6---------6--|----------6----6----6--|-------4---------4----|
--7------7--7------7--|--7-------7----7----7--|--5----5----5----5----|
--8------8--8------8--|--8-------8----8----8--|--6----6----6----6----|
--8------8--8------8--|--8-------8----8----8--|--6----6----6----6----|
--6------6--6------6--|--6-------6----6----6--|--4----4----4----4----|


  Q.     E  E  E  E  E     H.           Q       Q.     H        E   
---------4-----4-----4--|--3-----------------|--3------3--------L--|
---------4-----4-----4--|--3-----------------|--4------3--------L--|
--5------5--5--5--5--5--|--4-----------------|--5------3--------L--|
--6------6--6--6--6--6--|--5-----------------|--5------3--------L--|
--6------6--6--6--6--6--|--5-----------------|--3------3--------L--|
--4------4--4--4--4--4--|--3-----------------|---------------------|


  Q.     H        E     Q    Q    Q    Q       Q    E  E  Q    Q     
--3------3--------L--|-------3---------3----|-------3----------3----|
--4------3--------L--|--4----4----4----4----|--4----4--4--4----4----|
--5------3--------L--|--5----5----5----5----|--5----5--5--5----5----|
--5------3--------L--|--5----5----5----5----|--5----5--5--5----5----|
--3------3--------L--|--3----3----3----3----|--3----3--3--3----3----|
---------------------|----------------------|-----------------------|


  Q.     E  Q.     E     Q    E  Q    Q    E     Q    Q    Q    Q     
---------6---------6--|--------------------6--|-------4---------4----|
---------6---------6--|----------6----6----6--|-------4---------4----|
--7------7--7------7--|--7-------7----7----7--|--5----5----5----5----|
--8------8--8------8--|--8-------8----8----8--|--6----6----6----6----|
--8------8--8------8--|--8-------8----8----8--|--6----6----6----6----|
--6------6--6------6--|--6-------6----6----6--|--4----4----4----4----|


  Q    E  E  E  Q    E     Q    Q    Q    Q       Q    E  E  E  E  E  E   
----------4----------4--|-------3---------3----|----------3-----3-----3--|
----------4----------4--|-------3---------3----|----------3-----3-----3--|
--5-------5--5--5----5--|--4----4----4----4----|--4----4--4--4--4--4--4--|
--6-------6--6--6----6--|--5----5----5----5----|--5----5--5--5--5--5--5--|
--6-------6--6--6----6--|--5----5----5----5----|--5----5--5--5--5--5--5--|
--4-------4--4--4----4--|--3----3----3----3----|--3----3--3--3--3--3--3--|


  Q    Q    Q    Q       Q    E  E  Q    Q       Q.     E  Q.     E   
-------3---------3----|-------3----------3----|---------6---------6--|
--4----4----4----4----|--4----4--4--4----4----|---------6---------6--|
--5----5----5----5----|--5----5--5--5----5----|--7------7--7------7--|
--5----5----5----5----|--5----5--5--5----5----|--8------8--8------8--|
--3----3----3----3----|--3----3--3--3----3----|--8------8--8------8--|
----------------------|-----------------------|--6------6--6------6--|


  Q    E  Q    Q    E     Q    E  E  Q    Q       Q.     E  E  E  E  E   
--------------------6--|-------4----------4----|---------4-----4-----4--|
----------6----6----6--|-------4----------4----|---------4-----4-----4--|
--7-------7----7----7--|--5----5--5--5----5----|--5------5--5--5--5--5--|
--8-------8----8----8--|--6----6--6--6----6----|--6------6--6--6--6--6--|
--8-------8----8----8--|--6----6--6--6----6----|--6------6--6--6--6--6--|
--6-------6----6----6--|--4----4--4--4----4----|--4------4--4--4--4--4--|


  H.           Q       Q.     H        E     Q.     H        E   
--3-----------------|--3------3--------L--|--3------3--------L--|
--3-----------------|--4------3--------L--|--4------3--------L--|
--4-----------------|--5------3--------L--|--5------3--------L--|
--5-----------------|--5------3--------L--|--5------3--------L--|
--5-----------------|--3------3--------L--|--3------3--------L--|
--3-----------------|---------------------|---------------------|


  Q.     H        E     Q.     H        E     Q.     H        E   
--3------3--------L--|--3------3--------L--|--3------3--------L--|
--4------3--------L--|--4------3--------L--|--4------3--------L--|
--5------3--------L--|--5------3--------L--|--5------3--------L--|
--5------3--------L--|--5------3--------L--|--5------3--------L--|
--3------3--------L--|--3------3--------L--|--3------3--------L--|
---------------------|---------------------|---------------------|


  Q.     H        E     Q.     H        E     Q.     H        E   
--3------3--------L--|--3------3--------L--|--3------3--------L--|
--4------3--------L--|--4------3--------L--|--4------3--------L--|
--5------3--------L--|--5------3--------L--|--5------3--------L--|
--5------3--------L--|--5------3--------L--|--5------3--------L--|
--3------3--------L--|--3------3--------L--|--3------3--------L--|
---------------------|---------------------|---------------------|


  Q.     H        E     Q.     H        E     Q.     H        E   
--3------3--------L--|--3------3--------L--|--3------3--------L--|
--4------3--------L--|--4------3--------L--|--4------3--------L--|
--5------3--------L--|--5------3--------L--|--5------3--------L--|
--5------3--------L--|--5------3--------L--|--5------3--------L--|
--3------3--------L--|--3------3--------L--|--3------3--------L--|
---------------------|---------------------|---------------------|


  Q.     H        E     Q.     H        E     Q.     H        E   
--3------3--------L--|--3------3--------L--|--3------3--------L--|
--4------3--------L--|--4------3--------L--|--4------3--------L--|
--5------3--------L--|--5------3--------L--|--5------3--------L--|
--5------3--------L--|--5------3--------L--|--5------3--------L--|
--3------3--------L--|--3------3--------L--|--3------3--------L--|
---------------------|---------------------|---------------------|


  Q.     H        E     Q.     H        E                
--3------3--------L--|--3------3--------L--|-----|-----||
--4------3--------L--|--4------3--------L--|-----|-----||
--5------3--------L--|--5------3--------L--|-----|-----||
--5------3--------L--|--5------3--------L--|-----|-----||
--3------3--------L--|--3------3--------L--|-----|-----||
---------------------|---------------------|-----|-----||





=====================================================================
=====================================================================

                            Words At Twenty Paces                               


                                                                         Alabama
Electric guitar



     W                   W                   W                 
E||-------------------|-------------------|-------------------|
B||-------------------|-------------------|-------------------|
G||-------------------|-------------------|-------------------|
D||-------------------|-------------------|-------------------|
A||-------------------|-------------------|-------------------|
E||-------------------|-------------------|-------------------|


  W                   W                   W                   W                 
-------------------|-------------------|-------------------|-------------------|
-------------------|-------------------|-------------------|-------------------|
-------------------|-------------------|-------------------|-------------------|
-------------------|-------------------|-------------------|-------------------|
-------------------|-------------------|-------------------|-------------------|
-------------------|-------------------|-------------------|-------------------|


  H        Q    E  E     E  E  E  E  E  Q.        H.           E  E   
----------------------|------------------------|---------------------|
----------------------|------------------------|---------------------|
----------------------|------------------------|---------------------|
----------------------|--------------1---------|---------------------|
-------------------1--|--3-----3--------3------|--L---------------1--|
----------------------|------------------------|---------------------|


  E  E  E  E  E  Q.        H.           E  E     W                 
------------------------|---------------------|-------------------|
------------------------|---------------------|-------------------|
------------------------|---------------------|-------------------|
--------------1---------|---------------------|-------------------|
--3-----3--------3------|--L---------------1--|--3----------------|
------------------------|---------------------|-------------------|


  W                   W                   W                   W                 
-------------------|-------------------|-------------------|-------------------|
-------------------|-------------------|-------------------|-------------------|
-------------------|-------------------|-------------------|-------------------|
-------------------|-------------------|-------------------|-------------------|
-------------------|-------------------|-------------------|-------------------|
-------------------|-------------------|-------------------|-------------------|


  W                   W                   W                   W                 
-------------------|-------------------|-------------------|-------------------|
-------------------|-------------------|-------------------|-------------------|
-------------------|-------------------|-------------------|-------------------|
-------------------|-------------------|-------------------|-------------------|
-------------------|-------------------|-------------------|-------------------|
-------------------|-------------------|-------------------|-------------------|


  W                   W                   W                 
-------------------|-------------------|-------------------|
-------------------|-------------------|-------------------|
-------------------|-------------------|-------------------|
-------------------|-------------------|-------------------|
-------------------|-------------------|-------------------|
-------------------|-------------------|-------------------|


  H.           Q       W                   W                 
--------------------|-------------------|-------------------|
--------------------|-------------------|-------------------|
--------------------|-------------------|-------------------|
--------------------|-------------------|--5----------------|
--6-----------------|-------------------|--5----------------|
--4-----------------|-------------------|--3----------------|


  Q    S  S S  S S  S S  S S  S S  S    S  S  H.           E   
-------------------------------------|------------------------|
-------6p-4-6p-4-6p-4-6p-4-6p-4-6p-4-|--6p-4-/8---------------|
-------------------------------------|------------------------|
-------------------------------------|------------------------|
-------------------------------------|------------------------|
-------------------------------------|------------------------|


  H         H               W                 
------------------------|--------------------|
-----------11pbr--------|--11----------------|
------------------------|--------------------|
------------------------|--------------------|
------------------------|--------------------|
------------------------|--------------------|


                          |----3----|                         
  E   E   E   E   E   E   E    E    E      H.           Q     
---------10--11--13--11--10h--11p--10--|---------------------|
-----13--------------------------------|--13-----------------|
---------------------------------------|---------------------|
---------------------------------------|---------------------|
---------------------------------------|---------------------|
---------------------------------------|---------------------|


  W                   W                   E   E  H            E   E   
-------------------|-------------------|-----------------------------|
-------------------|-------------------|---------8pbr--------11s--8--|
-------------------|-------------------|--8s--7----------------------|
-------------------|-------------------|-----------------------------|
-------------------|-------------------|-----------------------------|
-------------------|-------------------|-----------------------------|


   W                     H          Q     Q          H.           Q     
---------------------|---------------------------|---------------------|
--11b----------------|---Lpb-------------11pb----|--11-----------------|
---------------------|---------------------------|---------------------|
---------------------|---------------------------|---------------------|
---------------------|---------------------------|---------------------|
---------------------|---------------------------|---------------------|


                            |----3----|                        
   E    E   E   E   E   E   E    E    E      W                 
-----------10--11--13--11--10h--11p--10--|--------------------|
--11s--13--------------------------------|--13----------------|
-----------------------------------------|--------------------|
-----------------------------------------|--------------------|
-----------------------------------------|--------------------|
-----------------------------------------|--------------------|


  W                   W                   W                  
-------------------|-------------------|--------------------|
-------------------|-------------------|--6b----------------|
-------------------|-------------------|--------------------|
-------------------|-------------------|--------------------|
-------------------|-------------------|--------------------|
-------------------|-------------------|--------------------|


  S   E.   E.   E.   E.   E.     E  Q    H        E     H        H         
------------------------------|----------------------|--------------------|
--Lpb-6b---6b---6b---6b---6---|--4-------------------|--------------------|
------------------------------|-----5----5--------L--|--5--------3--------|
------------------------------|----------------------|--------------------|
------------------------------|----------------------|--------------------|
------------------------------|----------------------|--------------------|


  H        H           W                   W                 
--------------------|-------------------|-------------------|
--------------------|-------------------|-------------------|
--1-----------------|-------------------|-------------------|
--------------------|-------------------|-------------------|
--------------------|-------------------|-------------------|
--------------------|-------------------|-------------------|


  W                   W                   W                 
-------------------|-------------------|-------------------|
-------------------|-------------------|-------------------|
-------------------|-------------------|-------------------|
-------------------|-------------------|-------------------|
-------------------|-------------------|-------------------|
-------------------|-------------------|-------------------|


  Q.      Q     E   Q        Q.     Q    E  Q       W                 
-------------------------|-----------------------|-------------------|
-------------------------|-----------------------|-------------------|
-------------------------|-----------------------|-------------------|
-------------------------|-----------------------|-------------------|
-------------------------|--10------8----L--6----|-------------------|
--8------10-----L--11----|-----------------------|--4----------------|


  W                   W                   W                   W                 
-------------------|-------------------|-------------------|-------------------|
-------------------|-------------------|-------------------|-------------------|
-------------------|-------------------|-------------------|-------------------|
-------------------|-------------------|-------------------|-------------------|
-------------------|-------------------|-------------------|-------------------|
-------------------|-------------------|-------------------|-------------------|


  W                   W                   W                 
-------------------|-------------------|-------------------|
-------------------|-------------------|-------------------|
-------------------|-------------------|-------------------|
-------------------|-------------------|-------------------|
-------------------|-------------------|-------------------|
-------------------|-------------------|-------------------|


  H        E  E    E  S  S    W                  
---------------------------|--------------------|
--------------6pb--4--6p-4-|--6b----------------|
---------------------------|--------------------|
---------------------------|--------------------|
---------------------------|--------------------|
---------------------------|--------------------|


  E      E.      E.      E.      E.   S  S     E    H.           E   
-------------------------------------------|------------------------|
------xg11----xg11----xg11----xg11---11p-8-|--11s--13---------------|
-------------------------------------------|------------------------|
-------------------------------------------|------------------------|
-------------------------------------------|------------------------|
-------------------------------------------|------------------------|


  H        E     S E  E     S    W                   W                 
------------------------------|-------------------|-------------------|
-----------6pbr--4----6pbr--4-|-------------------|-------------------|
------------------------------|--5----------------|-------------------|
------------------------------|-------------------|-------------------|
------------------------------|-------------------|-------------------|
------------------------------|-------------------|-------------------|


  W                   W                   W                   W                 
-------------------|-------------------|-------------------|-------------------|
-------------------|-------------------|-------------------|-------------------|
-------------------|-------------------|-------------------|-------------------|
-------------------|-------------------|-------------------|-------------------|
-------------------|-------------------|-------------------|-------------------|
-------------------|-------------------|-------------------|-------------------|


  W                   Q    E   E  E   E  E   E     H        H         
-------------------|----------------------------|--------------------|
-------------------|----------------------------|--------------------|
-------------------|-------3s--5--3s--5--3s--5--|--L-----------------|
-------------------|-------3s--5--3s--5--3s--5--|--L-----------------|
-------------------|----------------------------|--------------------|
-------------------|----------------------------|--------------------|


  H.            Q         E     H.           E     H         H          
----------------------|-------------------------|----------------------|
----------------------|-------------------------|----------------------|
---------------10b----|--10br--10---------------|-----------10b--------|
----------------------|-------------------------|----------------------|
----------------------|-------------------------|----------------------|
----------------------|-------------------------|----------------------|


   Q      H.              W                   W                 
-----------------------|-------------------|-------------------|
-----------------------|-------------------|-------------------|
--10br----8------------|-------------------|-------------------|
-----------------------|-------------------|-------------------|
-----------------------|-------------------|-------------------|
-----------------------|-------------------|-------------------|


                          |---3--|                        
  E   E   E     E  E  E   E  E   E     H        H         
------------------------------------|--------------------|
--6b--6b--6pbr--4--3--6p--4---------|--------------------|
-----------------------------5p--3--|--5-----------------|
------------------------------------|--------------------|
------------------------------------|--------------------|
------------------------------------|--------------------|


  H         H               W                 
------------------------|--------------------|
-----------11pbr--------|--11----------------|
------------------------|--------------------|
------------------------|--------------------|
------------------------|--------------------|
------------------------|--------------------|


                          |----3----|                        
  E   E   E   E   E   E   E    E    E      W                 
---------10--11--13--11--10h--11p--10--|--------------------|
-----13--------------------------------|--13----------------|
---------------------------------------|--------------------|
---------------------------------------|--------------------|
---------------------------------------|--------------------|
---------------------------------------|--------------------|


                                                |---3--|  |---3--|          
  W                   W                   Q     E  E   E  E   E  E   E  E   
-------------------|-------------------|-----------------------------------|
-------------------|-------------------|----------------------------11--8--|
-------------------|-------------------|-------10--8--10--8--10--8---------|
-------------------|-------------------|-----------------------------------|
-------------------|-------------------|-----------------------------------|
-------------------|-------------------|-----------------------------------|


   E    H         Q.                                  
-------------------------|-------|-------------------|
--11s--13---------L------|-------|-------------------|
-------------------------|-------|-------------------|
-------------------------|-------|-------------------|
-------------------------|-------|-------------------|
-------------------------|-------|-------------------|


                          |----3----|                        
  E   E   E   E   E   E   E    E    E      W                 
---------10--11--13--11--10h--11p--10--|--------------------|
-----13--------------------------------|--13----------------|
---------------------------------------|--------------------|
---------------------------------------|--------------------|
---------------------------------------|--------------------|
---------------------------------------|--------------------|


  W                   W                   W                   W                 
-------------------|-------------------|-------------------|-------------------|
-------------------|-------------------|-------------------|-------------------|
-------------------|-------------------|-------------------|-------------------|
-------------------|-------------------|-------------------|-------------------|
-------------------|-------------------|-------------------|-------------------|
-------------------|-------------------|-------------------|-------------------|


  W                   Q     S S  S S  S S  S S  S S  S S     H        H         
-------------------|-------------------------------------|---------------------|
-------------------|-------11-8-11-8-11-8-11-8-11-8-11-8-|---------------------|
-------------------|-------------------------------------|--10-----------------|
-------------------|-------------------------------------|---------------------|
-------------------|-------------------------------------|---------------------|
-------------------|-------------------------------------|---------------------|


  W                   W                   W                   W                 
-------------------|-------------------|-------------------|-------------------|
-------------------|-------------------|-------------------|-------------------|
-------------------|-------------------|-------------------|-------------------|
-------------------|-------------------|-------------------|-------------------|
-------------------|-------------------|-------------------|-------------------|
-------------------|-------------------|-------------------|-------------------|


  E  E  H           E  E      W                    W                 
--------------------------|---------------------|-------------------|
--------8br--------11--8--|--11b----------------|-------------------|
--7-----------------------|---------------------|-------------------|
--------------------------|---------------------|-------------------|
--------------------------|---------------------|-------------------|
--------------------------|---------------------|-------------------|


                                              |----3----|   
  W                   E   E   E   E   E   E   E    E    E   
-------------------|---------10--11--13--11--10h--11p--10--|
-------------------|-----13--------------------------------|
-------------------|---------------------------------------|
-------------------|---------------------------------------|
-------------------|---------------------------------------|
-------------------|---------------------------------------|


   H.           Q       W                   W                 
---------------------|-------------------|-------------------|
--13-----------------|-------------------|-------------------|
---------------------|-------------------|-------------------|
---------------------|-------------------|-------------------|
---------------------|-------------------|-------------------|
---------------------|-------------------|-------------------|


                                           <                   
  W                   W                    W                   
-------------------|-------------------|----------------------|
-------------------|-------------------|----------------------|
-------------------|-------------------|--10b~----------------|
-------------------|-------------------|----------------------|
-------------------|-------------------|----------------------|
-------------------|-------------------|----------------------|


   |-------------5-------------|                              
   Q      Q      Q      Q      Q         E   H.           E   
--------------------------------------|----------------------|
--------------------------------------|----------------------|
--10b----10b----10b----10b----10br----|--8-------------------|
--------------------------------------|-----10---------------|
--------------------------------------|----------------------|
--------------------------------------|----------------------|


  H.           E   E      W                     H.            Q     
----------------------|---------------------|----------------------|
----------------------|---------------------|----------------------|
---------------8--10--|--10b----------------|--10b------------8----|
----------------------|---------------------|----------------------|
----------------------|---------------------|----------------------|
----------------------|---------------------|----------------------|


   W                     E   E   E   E  E   E   E   E       W                 
---------------------|----------------------------------|--------------------|
---------------------|--11--13--------------------------|--------------------|
---------------------|----------10--12--8--10-----------|--------------------|
--10~----------------|-------------------------10s--8s--|--10----------------|
---------------------|----------------------------------|--------------------|
---------------------|----------------------------------|--------------------|


  W                   W                   W                   W                 
-------------------|-------------------|-------------------|-------------------|
-------------------|-------------------|-------------------|-------------------|
-------------------|-------------------|-------------------|-------------------|
-------------------|-------------------|-------------------|-------------------|
-------------------|-------------------|-------------------|-------------------|
-------------------|-------------------|-------------------|-------------------|


  W                   W                   W                  
-------------------|-------------------|-------------------||
-------------------|-------------------|-------------------||
-------------------|-------------------|-------------------||
-------------------|-------------------|-------------------||
-------------------|-------------------|-------------------||
-------------------|-------------------|-------------------||




Duration Legend
---------------
W - whole
H - half
Q - quarter
E - 8th
S - 16th
T - 32nd
X - 64th
. - note dotted
|-n-|  - n-tuplets


Tablature Legend
----------------
L - tied note
x - dead note
g - grace note
(n) - ghost note
> - accentuded note
NH - natural harmonic
AH - artificial harmonic
TH - tapped harmonic
SH - semi harmonic
PH - pitch harmonic
h - hammer on
p - pull off
b - bend
br - bendRelease
pb - preBend
pbr - preBendRelease
brb - bendReleaseBend
\n/ - tremolo bar dip
\n - tremolo bar dive
-/n - tremolo bar Release up
/n\ - tremolo bar inverted dip
/n - tremolo bar return
-\n - tremolo bar Release down
S - shift slide
s - legato slide
/ -  slide into from below or out of upwards
\ -  slide into from above or out of downwards
~ - vibrato
W - wide vibrato
tr - trill
TP - tremolo picking
T - tapping
S - slap
P - pop
< - fade in
^ - brush up
v - brush down
Tap to rate this tab
 
# A B C D E F G H I J K L M N O P Q R S T U V W X Y Z