Alabama - Theres A Fire In The Night tab

-----------------------------------------------------------------------------
	   There's A Fire In The Night - Alabama (GUITAR)
                       
-----------------------------------------------------------------------------
Tabbed by: Scotto10

Tuning: Standard

=============================================================================

Guitar



     PM PM PM PM PM PM PM PM    PM PM PM PM PM PM PM PM PM  
     E  E  E  E  E  E  E  E     E  E  E  E  E  E  E  S  S   
E||--------------------------|-----------------------------|
B||--------------------------|-----------------------------|
G||--------------------------|-----------------------------|
D||--2--------2--------2-----|-----2--------2-----2--------|
A||--0--0--0--0--0--0--0--0--|--0--0--0--0--0--0--0--0--0--|
E||--------------------------|-----------------------------|


  PM PM PM PM PM PM PM PM    PM PM PM PM PM PM PM  PM  
  E  E  E  E  E  E  E  E     E  E  E  E  E  E  E.  S   
--------------------------|---------------------------|
--------------------------|---------------------------|
--------------------------|---------------------------|
--------------------------|---------------------------|
--4--------4--------4-----|-----4--------4-----4------|
--2--2--2--2--2--2--2--2--|--2--2--2--2--2--2--2---2--|


  PM PM PM PM PM PM PM PM    PM PM PM PM PM PM PM PM PM  
  E  E  E  E  E  E  E  E     E  E  E  E  E  E  E  S  S   
--------------------------|-----------------------------|
--------------------------|-----------------------------|
--------------------------|-----------------------------|
--2--------2--------2-----|-----2--------2-----2--------|
--0--0--0--0--0--0--0--0--|--0--0--0--0--0--0--0--0--0--|
--------------------------|-----------------------------|


  PM PM PM PM PM PM PM PM    PM PM PM PM              PM PM PM PM PM PM PM PM  
  E  E  E  E  E  E  E  E     E  E  E  E  Q    Q       E  E  E  E  E  E  E  E   
--------------------------|------------------------|--------------------------|
--------------------------|--------------2----0----|--------------------------|
--------------------------|--------------2----1----|--------------------------|
--------------------------|--------------4----2----|-----------2--------2-----|
--4--------4--------4-----|-----4--------4----2----|--0--0--0--0--0--0--0--0--|
--2--2--2--2--2--2--2--2--|--2--2--2--2--2----0----|--------------------------|


  PM PM PM PM PM PM PM PM PM    PM PM PM PM PM PM PM PM  
  E  E  E  E  E  E  E  S  S     E  E  E  E  E  E  E  E   
-----------------------------|--------------------------|
-----------------------------|--------------------------|
-----------------------------|--------------------------|
-----2--------2-----2--------|--2--------2--------2-----|
--0--0--0--0--0--0--0--0--0--|--0--0--0--0--0--0--0--0--|
-----------------------------|--------------------------|


  PM PM PM PM PM PM PM PM PM    PM PM PM PM PM PM PM PM  
  E  E  E  E  E  E  E  S  S     E  E  E  E  E  E  E  E   
-----------------------------|--------------------------|
-----------------------------|--------------------------|
-----------------------------|--------------------------|
-----2-----2--2-----2--------|--2--------2--------2-----|
--0--0--0--0--0--0--0--0--0--|--0--0--0--0--0--0--0--0--|
-----------------------------|--------------------------|


  PM PM PM PM PM PM PM PM PM    PM PM PM PM PM PM PM PM  
  E  E  E  E  E  E  E  S  S     E  E  E  E  E  E  E  E   
-----------------------------|--------------------------|
-----------------------------|--------------------------|
-----------------------------|--------------------------|
-----2--------2-----2--------|--------------------------|
--0--0--0--0--0--0--0--0--0--|--4--------4--------4-----|
-----------------------------|--2--2--2--2--2--2--2--2--|


  PM PM PM PM PM PM PM PM PM    PM PM PM PM PM PM PM PM  
  E  E  E  E  E  E  E  S  S     E  E  E  E  E  E  E  E   
-----------------------------|--------------------------|
-----------------------------|--------------------------|
-----------------------------|--------------------------|
-----------------------------|--2--------2--------2-----|
-----4--------4-----4--------|--0--0--0--0--0--0--0--0--|
--2--2--2--2--2--2--2--2--2--|--------------------------|


  PM PM PM PM PM PM PM PM PM    PM PM PM PM PM PM PM PM  
  E  E  E  E  E  E  E  S  S     E  E  E  E  E  E  E  E   
-----------------------------|--------------------------|
-----------------------------|--------------------------|
-----------------------------|--------------------------|
-----2--------2-----2--------|--------------------------|
--0--0--0--0--0--0--0--0--0--|--4--------4--------4-----|
-----------------------------|--2--2--2--2--2--2--2--2--|


  PM PM PM PM PM PM PM PM PM    PM PM PM PM PM PM PM PM  
  E  E  E  E  E  E  E  S  S     E  E  E  E  E  E  E  E   
-----------------------------|--------------------------|
-----------------------------|--------------------------|
-----------------------------|--2--------2--------2-----|
-----------------------------|--0--0--0--0--0--0--0--0--|
-----4-----4--4-----4--------|--------------------------|
--2--2--2--2--2--2--2--2--2--|--------------------------|


  PM PM PM PM PM PM PM PM PM    PM PM PM PM PM PM PM PM  
  E  E  E  E  E  E  E  S  S     E  E  E  E  E  E  E  E   
-----------------------------|--------------------------|
-----------------------------|--------------------------|
-----2--------2-----2--------|--------------------------|
--0--0--0--0--0--0--0--0--0--|--7--------7--------7-----|
-----------------------------|--0--0--0--0--0--0--0--0--|
-----------------------------|--------------------------|


  PM PM PM PM PM PM PM PM    PM PM PM PM PM PM PM PM  
  E  E  E  E  E  E  E  E     E  E  E  E  E  E  E  E   
--------------------------|--------------------------|
--------------------------|--------------------------|
--------------------------|--------------------------|
-----7--------7--7--7-----|--4--------4-----4--4-----|
--0--0--0--0--0--0--0--0--|--2--2--2--2--2--2--2--2--|
--------------------------|--------------------------|


  PM PM PM PM PM PM PM PM                                                     
  E  E  E  E  E  E  E  E     Q    E  Q    E  E  E     Q    E  E  E  E  E  E   
--------------------------|------------------------|-------------------------|
--------------------------|------------------------|-------------------------|
--2--------2--------2-----|------------------------|-------------------------|
--0--0--0--0--0--0--0--0--|------------------------|-------------------------|
--------------------------|------------------------|-------------------------|
--------------------------|--0----0--0----0--0--0--|--0----0--0--0--0--0--0--|


  Q    H        E  E     Q.     H        E     Q    H        E  E   
-------2--------0--2--|--L------2-----------|----------------------|
-------2--------0--2--|--L------2-----------|-------2--------0--2--|
-------2--------1--2--|--L------2-----------|-------2--------1--2--|
----------------------|---------------------|-------2--------0--2--|
----------------------|---------------------|--0-------------------|
--2-------------------|---------------------|----------------------|


  Q.     H        E     Q    H        E  E     Q.     H        S  S  
---------------------|-------2--------0--2--|--L------2-------------|
--L------2-----------|-------2--------0--2--|--L------2-------------|
--L------2-----------|-------2--------1--2--|--L------2-------------|
--L------2-----------|----------------------|-----------------------|
---------------------|----------------------|-----------------------|
---------------------|--2-------------------|------------------0h-2-|


                                               PM      PM PM PM PM PM  
  Q    H        E  E     Q.     H        E     Q    E  E  E  E  E  E   
----------------------|---------0-----------|-------------------------|
-------2--------0--2--|--L------2-----------|-------------------------|
-------2--------1--2--|--L------2-----------|--2----------------------|
-------2--------0--2--|--L------2-----------|--0-------0--0--0--0--0--|
--0-------------------|---------------------|-------------------------|
----------------------|---------------------|-------------------------|


  PM PM PM PM   PM PM PM PM    PM   PM PM PM PM PM PM  
  E  E  E  Q    E  E  S  S     Q    E  E  E  E  E  E   
----------------------------|-------------------------|
----------------------------|-------------------------|
-----------2----------------|-------------------------|
--0--0--0--0----0--0--------|-------------------------|
----------------------------|--0----0--0--0--0--0--0--|
----------------------0--2--|-------------------------|


  PM PM PM PM PM PM PM PM    PM     PM PM PM                            
  E  E  E  E  E  E  E  E     Q.     E  E  Q    E     H        H         
--------------------------|-----------------------|--2--------0--------|
--------------------------|-----------------------|--2--------0--------|
--------------------------|--2--------------------|--2--------1--------|
--------------------------|--0------0--0--0-------|--4--------2--------|
--0--0--0--0--0--0--0--0--|-----------------------|--------------------|
--------------------------|-----------------------|--------------------|


  PM PM PM    PM PM    PM    PM    PM PM    PM    PM PM  
  E  E  E  E  E  E  E  E     E  E  E  E  E  E  E  S  S   
--------------------------|-----------------------------|
--------------------------|-----------------------------|
--------------------------|-----------------------------|
-----------2--------2-----|-----2--------2-----2--------|
--0--0--0--0--0--0--0--0--|--0--0--0--0--0--0--0--0--0--|
--------------------------|-----------------------------|


     PM PM    PM PM    PM    PM    PM       PM    PM PM  
  E  E  E  E  E  E  E  E     E  E  E  E  E  E  E  S  S   
--------------------------|-----------------------------|
--------------------------|-----------------------------|
--------------------------|-----------------------------|
--2--------2--------2-----|-----2-----2--2-----2--------|
--0--0--0--0--0--0--0--0--|--0--0--0--0--0--0--0--0--0--|
--------------------------|-----------------------------|


  PM PM PM    PM PM    PM    PM    PM PM PM       PM PM  
  E  E  E  E  E  E  E  E     E  E  E  E  E  E  E  S  S   
--------------------------|-----------------------------|
--------------------------|-----------------------------|
--------------------------|-----------------------------|
--2--------2--------2-----|-----2-----------2--2--------|
--0--0--0--0--0--0--0--0--|--0--0--0--0--0--0--0--0--0--|
--------------------------|-----------------------------|


     PM PM    PM PM    PM    PM    PM       PM    PM PM  
  E  E  E  E  E  E  E  E     E  E  E  E  E  E  E  S  S   
--------------------------|-----------------------------|
--------------------------|-----------------------------|
--------------------------|-----------------------------|
--2--------2--------2-----|-----2-----2--2-----2--------|
--------------------------|-----------------------------|
--2--2--2--2--2--2--2--2--|--2--2--2--2--2--2--2--2--2--|


  PM PM PM    PM PM    PM    PM    PM PM    PM    PM PM  
  E  E  E  E  E  E  E  E     E  E  E  E  E  E  E  S  S   
--------------------------|-----------------------------|
--------------------------|-----------------------------|
--------------------------|-----------------------------|
--2--------2--------2-----|-----2--------2-----2--------|
--0--0--0--0--0--0--0--0--|--0--0--0--0--0--0--0--0--0--|
--------------------------|-----------------------------|


     PM PM    PM PM    PM    PM    PM       PM    PM PM  
  E  E  E  E  E  E  E  E     E  E  E  E  E  E  E  S  S   
--------------------------|-----------------------------|
--------------------------|-----------------------------|
--------------------------|-----------------------------|
--2--------2--------2-----|-----2-----2--2-----2--------|
--------------------------|-----------------------------|
--2--2--2--2--2--2--2--2--|--2--2--2--2--2--2--2--2--2--|


  PM PM PM PM PM PM PM PM    PM PM PM PM PM PM PM PM PM  
  E  E  E  E  E  E  E  E     E  E  E  E  E  E  E  S  S   
--------------------------|-----------------------------|
--------------------------|-----------------------------|
--2--------2--------2-----|-----2--------2-----2--------|
--0--0--0--0--0--0--0--0--|--0--0--0--0--0--0--0--0--0--|
--------------------------|-----------------------------|
--------------------------|-----------------------------|


  PM PM PM    PM PM    PM    PM    PM PM PM       PM  
  E  E  E  E  E  E  E  E     E  E  E  E  E  E  E  E   
--------------------------|--------------------------|
--------------------------|--------------------------|
--------------------------|--------------------------|
--2--------2--------2-----|-----2--------2--2--2-----|
--0--0--0--0--0--0--0--0--|--0--0--0--0--0--0--0--0--|
--------------------------|--------------------------|


  PM    PM PM PM       PM                                                      
  E  E  E  E  E  E  E  E     E  E  E  E  E  E  E  E     Q    E  Q    E  E  E   
--------------------------|--------------------------|------------------------|
--------------------------|--------------------------|------------------------|
--------------------------|--2--------2--------2-----|------------------------|
--4--------4-----4--4-----|--0--0--0--0--0--0--0--0--|------------------------|
--2--2--2--2--2--2--2--2--|--------------------------|------------------------|
--------------------------|--------------------------|--0----0--0----0--0--0--|


  Q    E  E  E  E  E  E     Q    H        E  E     Q.     H        E   
-------------------------|-------2--------0--2--|--L------2-----------|
-------------------------|-------2--------0--2--|--L------2-----------|
-------------------------|-------2--------1--2--|--L------2-----------|
-------------------------|----------------------|---------------------|
-------------------------|----------------------|---------------------|
--0----0--0--0--0--0--0--|--2-------------------|---------------------|


  Q    H        E  E     Q.     H        E     Q    H        E  E   
----------------------|---------------------|-------2--------0--2--|
-------2--------0--2--|--L------2-----------|-------2--------0--2--|
-------2--------1--2--|--L------2-----------|-------2--------1--2--|
-------2--------0--2--|--L------2-----------|----------------------|
--0-------------------|---------------------|----------------------|
----------------------|---------------------|--2-------------------|


  Q.     H        S  S    Q    H        E  E     Q.     H        E   
--L------2-------------|----------------------|---------0-----------|
--L------2-------------|-------2--------0--2--|--L------2-----------|
--L------2-------------|-------2--------1--2--|--L------2-----------|
-----------------------|-------2--------0--2--|--L------2-----------|
-----------------------|--0-------------------|---------------------|
------------------0h-2-|----------------------|---------------------|


  PM      PM PM PM PM PM    PM PM PM PM   PM PM PM PM  
  Q    E  E  E  E  E  E     E  E  E  Q    E  E  S  S   
-------------------------|----------------------------|
-------------------------|----------------------------|
--2----------------------|-----------2----------------|
--0-------0--0--0--0--0--|--0--0--0--0----0--0--------|
-------------------------|----------------------------|
-------------------------|----------------------0--2--|


  PM   PM PM PM PM PM PM    PM PM PM PM PM PM PM PM    PM     PM PM PM       
  Q    E  E  E  E  E  E     E  E  E  E  E  E  E  E     Q.     E  E  Q    E   
-------------------------|--------------------------|-----------------------|
-------------------------|--------------------------|-----------------------|
-------------------------|--------------------------|--2--------------------|
-------------------------|--------------------------|--0------0--0--0-------|
--0----0--0--0--0--0--0--|--0--0--0--0--0--0--0--0--|-----------------------|
-------------------------|--------------------------|-----------------------|


  F#m      E           A                                                    
                       PM PM PM    PM PM    PM    PM    PM PM    PM         
  H        H           E  E  E  E  E  E  E  E     E  E  E  E  E  E  E  S S  
--2--------0--------|--------------------------|---------------------------|
--2--------0--------|--------------------------|---------------------------|
--2--------1--------|--------------------------|---------------------------|
--4--------2--------|-----------2--------2-----|-----2--------2-----2------|
--------------------|--0--0--0--0--0--0--0--0--|--0--0--0--0--0--0--0------|
--------------------|--------------------------|-----------------------0-0-|


  F#m                                                  
  PM  PM PM PM PM PM PM PM    PM PM PM PM PM PM PM PM  
  E   E  E  E  E  E  E  E     E  E  E  E  E  E  E  E   
---------------------------|--------------------------|
---------------------------|--------------------------|
---------------------------|--------------------------|
---------------------------|--------------------------|
--4---------4--------4-----|-----4-----4--4--4--4-----|
--2---2--2--2--2--2--2--2--|--2--2--2--2--2--2--2--2--|


  A                                                      
  PM PM PM PM PM PM PM PM    PM PM PM PM PM PM PM PM PM  
  E  E  E  E  E  E  E  E     E  E  E  E  E  E  E  S  S   
--------------------------|-----------------------------|
--------------------------|-----------------------------|
--------------------------|-----------------------------|
-----------2--------2-----|-----2-----2--2--2-----------|
--0--0--0--0--0--0--0--0--|--0--0--0--0--0--0--0--------|
--------------------------|-----------------------0--0--|


  F#m                                                    
  PM  PM PM PM PM PM PM PM    PM PM PM PM PM PM PM PM    
  E   E  E  E  E  E  E  E     E  E  E  E  E  E  E  S  S  
---------------------------|----------------------------|
---------------------------|----------------------------|
---------------------------|----------------------------|
---------------------------|----------------------------|
--4---------4--------------|--4--4--------4-------------|
--2---2--2--2--2--2--2--2--|--2--2--2--2--2--2--2--0h-2-|


  A                                                                          
  PM PM PM PM PM PM PM PM    PM PM PM PM                                     
  E  E  E  E  E  E  E  E     E  E  E  E  E  E  E  E     Q    H        E  E   
--------------------------|--------------------------|-------2--------0--2--|
--------------------------|--------------------------|-------2--------0--2--|
--------------------------|--------------------------|-------2--------1--2--|
-----2-----2-----2--2--2--|-----2-----2--2--2--2--2--|----------------------|
--0--0--0--0--0--0--0--0--|--0--0--0--0--0--0--0--0--|----------------------|
--------------------------|--------------------------|--2-------------------|


  Q.     H        E     Q    H        E  E     Q.     H        E   
--L------2-----------|----------------------|---------------------|
--L------2-----------|-------2--------0--2--|--L------2-----------|
--L------2-----------|-------2--------1--2--|--L------2-----------|
---------------------|-------2--------0--2--|--L------2-----------|
---------------------|--0-------------------|---------------------|
---------------------|----------------------|---------------------|


  Q    H        E  E     Q.     H        S  S    Q    H        E  E   
-------2--------0--2--|--L------2-------------|----------------------|
-------2--------0--2--|--L------2-------------|-------2--------0--2--|
-------2--------1--2--|--L------2-------------|-------2--------1--2--|
----------------------|-----------------------|-------2--------0--2--|
----------------------|-----------------------|--0-------------------|
--2-------------------|------------------0h-2-|----------------------|


                        PM      PM PM PM PM PM    PM PM PM PM   PM PM PM PM  
  Q.     H        E     Q    E  E  E  E  E  E     E  E  E  Q    E  E  S  S   
---------0-----------|-------------------------|----------------------------|
--L------2-----------|-------------------------|----------------------------|
--L------2-----------|--2----------------------|-----------2----------------|
--L------2-----------|--0-------0--0--0--0--0--|--0--0--0--0----0--0--------|
---------------------|-------------------------|----------------------------|
---------------------|-------------------------|----------------------0--2--|


  PM   PM PM PM PM PM PM    PM PM PM PM PM PM PM PM    PM     PM PM PM PM    
  Q    E  E  E  E  E  E     E  E  E  E  E  E  E  E     Q.     E  E  E  Q     
-------------------------|--------------------------|-----------------------|
-------------------------|--------------------------|-----------------------|
-------------------------|--------------------------|--2---------------2----|
-------------------------|--------------------------|--0------0--0--0--0----|
--0----0--0--0--0--0--0--|--0--0--0--0--0--0--0--0--|-----------------------|
-------------------------|--------------------------|-----------------------|


                       PM PM PM    PM PM    PM    PM    PM PM PM       PM PM  
  H        H           E  E  E  E  E  E  E  E     E  E  E  E  E  E  E  S  S   
--2--------0--------|--------------------------|-----------------------------|
--2--------0--------|--------------------------|-----------------------------|
--2--------1--------|--------------------------|-----------------------------|
--4--------2--------|--2--------2--------2-----|-----2-----------2--2--------|
--------------------|--0--0--0--0--0--0--0--0--|--0--0--0--0--0--0--0--0--0--|
--------------------|--------------------------|-----------------------------|


     PM PM    PM PM    PM    PM    PM       PM    PM PM  
  E  E  E  E  E  E  E  E     E  E  E  E  E  E  E  S  S   
--------------------------|-----------------------------|
--------------------------|-----------------------------|
--------------------------|-----------------------------|
--------------------------|-----------------------------|
--4--------4--------4-----|-----4-----4--4-----4--------|
--2--2--2--2--2--2--2--2--|--2--2--2--2--2--2--2--2--2--|


  PM PM PM    PM PM    PM    PM    PM PM    PM    PM PM  
  E  E  E  E  E  E  E  E     E  E  E  E  E  E  E  S  S   
--------------------------|-----------------------------|
--------------------------|-----------------------------|
--------------------------|-----------------------------|
--2--------2--------2-----|-----2--------2-----2--------|
--0--0--0--0--0--0--0--0--|--0--0--0--0--0--0--0--0--0--|
--------------------------|-----------------------------|


     PM PM    PM PM    PM    PM    PM       PM    PM PM  
  E  E  E  E  E  E  E  E     E  E  E  E  E  E  E  S  S   
--------------------------|-----------------------------|
--------------------------|-----------------------------|
--------------------------|-----------------------------|
--------------------------|-----2-----2--2-----2--------|
--4--------4--------4-----|-----------------------------|
--2--2--2--2--2--2--2--2--|--2--2--2--2--2--2--2--2--2--|


  PM PM PM    PM PM    PM    PM    PM PM PM       PM PM  
  E  E  E  E  E  E  E  E     E  E  E  E  E  E  E  S  S   
--------------------------|-----------------------------|
--------------------------|-----------------------------|
--------------------------|-----------------------------|
--2--------2--------2-----|-----2-----------2--2--------|
--0--0--0--0--0--0--0--0--|--0--0--0--0--0--0--0--0--0--|
--------------------------|-----------------------------|


     PM PM    PM PM    PM    PM    PM       PM    PM PM  
  E  E  E  E  E  E  E  E     E  E  E  E  E  E  E  S  S   
--------------------------|-----------------------------|
--------------------------|-----------------------------|
--------------------------|-----------------------------|
--2--------2--------2-----|-----------------------------|
--------------------------|-----4-----4--4-----4--------|
--2--2--2--2--2--2--2--2--|--2--2--2--2--2--2--2--2--2--|


  PM PM PM    PM PM    PM    PM    PM PM    PM    PM PM  
  E  E  E  E  E  E  E  E     E  E  E  E  E  E  E  S  S   
--------------------------|-----------------------------|
--------------------------|-----------------------------|
--------------------------|-----------------------------|
--2--------2--------2-----|-----2--------2-----2--------|
--0--0--0--0--0--0--0--0--|--0--0--0--0--0--0--0--0--0--|
--------------------------|-----------------------------|


     PM PM    PM PM    PM    PM PM PM PM PM PM PM PM PM  
  E  E  E  E  E  E  E  E     E  E  E  E  E  E  E  S  S   
--------------------------|-----------------------------|
--------------------------|-----------------------------|
--------------------------|-----------------------------|
--------------------------|-----------------------------|
--4--------4--------4-----|-----4-----4--4-----4--------|
--2--2--2--2--2--2--2--2--|--2--2--2--2--2--2--2--2--2--|


  PM PM PM PM PM PM PM PM    PM PM PM PM PM PM PM PM PM  
  E  E  E  E  E  E  E  E     E  E  E  E  E  E  E  S  S   
--------------------------|-----------------------------|
--------------------------|-----------------------------|
--------------------------|-----------------------------|
--2--------2--------2-----|-----2-----------2--2--------|
--0--0--0--0--0--0--0--0--|--0--0--0--0--0--0--0--0--0--|
--------------------------|-----------------------------|


  PM PM PM PM PM PM PM PM    PM PM PM PM PM PM PM PM PM  
  E  E  E  E  E  E  E  E     E  E  E  E  E  E  E  S  S   
--------------------------|-----------------------------|
--------------------------|-----------------------------|
--------------------------|-----------------------------|
--------------------------|-----------------------------|
--4--------4--------4-----|-----4-----4--4-----4--------|
--2--2--2--2--2--2--2--2--|--2--2--2--2--2--2--2--2--2--|


  PM PM PM PM PM PM PM PM    PM PM PM PM PM PM PM PM PM  
  E  E  E  E  E  E  E  E     E  E  E  E  E  E  E  S  S   
--------------------------|-----------------------------|
--------------------------|-----------------------------|
--------------------------|-----------------------------|
--2--------2--------2-----|-----2--------2-----2--------|
--0--0--0--0--0--0--0--0--|--0--0--0--0--0--0--0--0--0--|
--------------------------|-----------------------------|


  PM PM PM PM PM PM PM PM    PM PM PM PM PM PM PM PM PM  
  E  E  E  E  E  E  E  E     E  E  E  E  E  E  E  S  S   
--------------------------|-----------------------------|
--------------------------|-----------------------------|
--------------------------|-----------------------------|
--------------------------|-----------------------------|
--4--------4--------4-----|-----4-----4--4-----4--------|
--2--2--2--2--2--2--2--2--|--2--2--2--2--2--2--2--2--2--|


  PM PM PM PM PM PM PM PM    PM PM PM PM PM PM PM PM PM  
  E  E  E  E  E  E  E  E     E  E  E  E  E  E  E  S  S   
--------------------------|-----------------------------|
--------------------------|-----------------------------|
--------------------------|-----------------------------|
--2--------2--------2-----|-----2-----------2--2--------|
--0--0--0--0--0--0--0--0--|--0--0--0--0--0--0--0--0--0--|
--------------------------|-----------------------------|


  PM PM PM PM PM PM PM PM    PM PM PM PM PM PM PM PM PM  
  E  E  E  E  E  E  E  E     E  E  E  E  E  E  E  S  S   
--------------------------|-----------------------------|
--------------------------|-----------------------------|
--------------------------|-----------------------------|
--------------------------|-----------------------------|
--4--------4--------4-----|-----4-----4--4-----4--------|
--2--2--2--2--2--2--2--2--|--2--2--2--2--2--2--2--2--2--|


  PM PM PM PM PM PM PM PM   
  E  E  E  E  E  E  E  E    
--------------------------||
--------------------------||
--------------------------||
--2--------2--------2-----||
--0--0--0--0--0--0--0--0--||
--------------------------||




Duration Legend
---------------
W - whole
H - half
Q - quarter
E - 8th
S - 16th
T - 32nd
X - 64th
. - note dotted
|-n-|  - n-tuplets


Tablature Legend
----------------
L - tied note
x - dead note
g - grace note
(n) - ghost note
> - accentuded note
NH - natural harmonic
AH - artificial harmonic
TH - tapped harmonic
SH - semi harmonic
PH - pitch harmonic
h - hammer on
p - pull off
b - bend
br - bendRelease
pb - preBend
pbr - preBendRelease
brb - bendReleaseBend
\n/ - tremolo bar dip
\n - tremolo bar dive
-/n - tremolo bar Release up
/n\ - tremolo bar inverted dip
/n - tremolo bar return
-\n - tremolo bar Release down
S - shift slide
s - legato slide
/ -  slide into from below or out of upwards
\ -  slide into from above or out of downwards
~ - vibrato
W - wide vibrato
tr - trill
TP - tremolo picking
T - tapping
S - slap
P - pop
< - fade in
^ - brush up
v - brush down
Tap to rate this tab
 
# A B C D E F G H I J K L M N O P Q R S T U V W X Y Z