Song name
# A B C D E F G H I J K L M N O P Q R S T U V W X Y Z

Aladdin - A Whole New World tab

-------------------------------------------------------------------------------
			   A Whole New World - Aladdin
-------------------------------------------------------------------------------
Tabbed by: kevin
Email: ultim4teman@gmail.com

Tuning: normal

this is my version of a whole new world, simple and sweet lol.

e|-0---1-0-------0---1-0---0---------0---------------------------------------|
B|---3-----1-------3-----1---3---3-2---3-0-3-1-0-1---1-3-1-------------------|
G|-----------0-------------------------------------2-------0-----------------| 
D|---------------------------------------------------------------------------|
A|---------------------------------------------------------------------------|
E|---------------------------------------------------------------------------|

e|-0---1-0-------0---1-0---0---------0---------------------------------------|
B|---3-----1-------3-----1---3---3-2---3-0-3-1-0-1---1-3-1-------------------|
G|-----------0-------------------------------------2-------0-----------------| 
D|---------------------------------------------------------------------------|
A|---------------------------------------------------------------------------|
E|---------------------------------------------------------------------------|

e|-0-1-5-3--0-1-5-3---1-0-0--0-1-3-7-5-3---7-8-3---0-------------------------|
B|------------------3--------------------1-------1---3-1---1-3---------------|
G|-------------------------------------------------------2-------------------|
D|---------------------------------------------------------------------------|
A|---------------------------------------------------------------------------|
E|---------------------------------------------------------------------------|

e|-0-1-5-3--0-1-5-3---1-0-0--0-1-3-7-5-3---7-8-3---0-------1-0---------------|
B|------------------3--------------------1-------1---3-1-3-----1-0-1---------|
G|---------------------------------------------------------------------------|
D|---------------------------------------------------------------------------|
A|---------------------------------------------------------------------------|
E|---------------------------------------------------------------------------|




===============================================================================
Tap to rate this tab
# A B C D E F G H I J K L M N O P Q R S T U V W X Y Z