Song name
# A B C D E F G H I J K L M N O P Q R S T U V W X Y Z

Alamid - Your Love tab

solo part:
--15s--10--8---7h8---------------------------------------------------------|
------------------8-8-8s15-15--15--15--15----------------------------------|
-----------------------------17--16--14--12--------12---11h12--------------|
-----------------------------------------------------------------12--------|
---------------------------------------------------------------------------|
---------------------------------------------------------------------------|

------------------------------------------22-------------------------------|
-------------15--------------15s20---22b24---24b-22------20-22-22p20----20-|
-----------------17--16--17-------------------------------------------21---|
---12h14--12---------------------------------------------------------------|
---------------------------------------------------------------------------|
---------------------------------------------------------------------------|

--------22-22-22p20-------------15-----------------------------------------|
22b24--------------20--13s15-------13h15--12h13p12--14--14-----------------|
----------------------------------------------------------12h12p12-----12--|
-------------------------------------------------------------------14------|
---------------------------------------------------------------------------|
---------------------------------------------------------------------------|

---------------------------------------------------------------------------|
-----------13h15p13p12-----------------------------------------------------|
--14b16-----------------14p12-----12---b14-16b14----------12---------------|
--------14---------------------14----------------12h14---------------------|
---------------------------------------------------------------------------|
---------------------------------------------------------------------------|

Tap to rate this tab
# A B C D E F G H I J K L M N O P Q R S T U V W X Y Z