Song name
# A B C D E F G H I J K L M N O P Q R S T U V W X Y Z

Alamid - Sama-sama tab

                                                                                         
                                                                                        
                                                       Chorus:
    G          Am       Bm           C
    Sama-sama tayong magsayawan sa daan
    Em          D                 C
    Umikot-ikot kumembot-kembot walang pakialam
    G          Am       Bm           C
    Sama-sama tayong magsayawan sa daan
    Em             D                C
    Umikot-ikot na parang senglot walang pakialam

                                                                                 
    D     Em               C
    Minsan pa na tayo'y nagkasama-sama
       G             D        Em      C
    Sa saliw ng musika sa tugtog ng gitara
     G         D         Em             C
    Iduduyan kita sa awiting nabuo ng pinagsamahan
      G           D           Em        C
    Muli nating buhayin ang ating nakaraan kalokohan
   (Repeat Chorus)
    Adlib:(Chorus Chords)

  e----------------------------------------------10-12-12p8/10-----------|
  b----------------------8-8-7-8-8h10---------10-------------------------|
  g---------------7----7--------------7-11-12----------------------------|
  d--------7-9-10----9---------------------------------------------------|
  a-7-9-10---------------------------------------------------------------|
  e----------------------------------------------------------------------|

  e-8-7-8-----------------------------3------------3---------------------|
  b-------8h10----------------------3------------3----7-8-10-8-7-8-------|
  g------------7-9-7-7-5-7-5-5p4--4------5-4-5-4--------------------7----|
  d----------------------------------------------------------------------|
  a----------------------------------------------------------------------|
  e----------------------------------------------------------------------|

  e--------10--12-10--17-15----------------------------------------------|
  b-8-8/10------------------15p13----------------------------------------|
  g-------------------------------14----11/12-14-------------------------|
  d----------------------------------12----------12-17-------------------|
  a-----------------------------------------------------------7-5-3------|
  e----------------------------------------------------10-8-7-------3----|
                                                                               
Pattern)

   Kay saya balikan ang ating alaala
   Ating mga biruan nung tayo'y mga bata pa
   Nariyan na ang pulutan na ating inutang
   Simulan na ang inuman simulan na ang tugtugan
   (Repeat Chorus)
   Outro:(Chorus Chords)
Tap to rate this tab
# A B C D E F G H I J K L M N O P Q R S T U V W X Y Z