Song name
# A B C D E F G H I J K L M N O P Q R S T U V W X Y Z

Alamo Race Track - Black Cat John Brown tab

Black Cat John Brown

E ||----------------|--------------------------|-------------------------|
B ||----------------|--------------------------|-------------------------|
G ||----------------|--------------------------|-------------------------|
D ||----------------|-------0---------0--------|--0----------------------|
A ||-->5---3---1--|-|----------1---------1-----|---------->5---3---1-----|
E ||----------------|---3---------3---------3--|-------------------------|
     2x  


E ||----------------|---------------------------|--------|
B ||----------------|---------------------------|--------|
G ||----------------|-------0---------0---------|--0-----|
D ||----------------|----------1---------1------|--------|
A ||-->5---3---1----|-3-----------3---------3---|--------|
E ||----------------|---------------------------|--------|
      1x

E ||----------------|--------------------------|-------------------------|
B ||----------------|--------------------------|-------------------------|
G ||----------------|--------------------------|-------------------------|
D ||----------------|-------0---------0--------|--0----------------------|
A ||-->5---3---1--|-|----------1---------1-----|---------->5---3---1-----|
E ||----------------|---3---------3---------3--|-------------------------     1x  and back to the begin


Black cat John Brown, your time will come
Big yellow eyes, full moon is rising
Black cat John Brown, your time will come
Windows and fences, you'll take no risk

You catch the world, big open eyes
You catch some berries from trees that reach the sky
You'll get older, you can't catch time
You'll have a good life and then you'll die

Black cat John Brown, your time will come
Big yellow eyes, full moon is rising
Black cat John Brown, your time will come
Windows and fences, you'll take no risk
Tap to rate this tab
# A B C D E F G H I J K L M N O P Q R S T U V W X Y Z