Song name
# A B C D E F G H I J K L M N O P Q R S T U V W X Y Z

Alan Jackson - Good Time tab

The other version is way off. Pick Near bridge


e|-------------------------------------------------------------------------|
B|-------------------------------------------------------------------------|
G|-------------------------------------------------------------------------|
D|-------0-0--------0-0-------0-0------------------------------------------|
A|---4h5------4h5------4h5-----------2p0-----------------------------------|
E|----------------------------------------3-0-3----------------------------|


e|-------------------------------------------------------------------------|
B|-------------------------------------------------------------------------|
G|-------------------------------------------------------------------------|
D|-------0-0--------0-0-------0-0------------------------------------------|
A|---4h5------4h5------4h5-----------2p0-----------------------------------|
E|----------------------------------------3-0-3----------------------------|

e|-------------------------------------------------------------------------|
B|-------------------------------------------------------------------------|
G|-------------------------------------------------------------------------|
D|-------0-0--------0-0-------0-0------------------------------------------|
A|---4h5------4h5------4h5-----------2p0-----------------------------------|
E|----------------------------------------3-0-3----------------------------|

e|-------------------------------------------------------------------------|
B|-------------------------------------------------------------------------|
G|-------------------------------------------------------------------------|
D|-------0-0--------0-0-------0-0------------------------------------------|
A|---4h5------4h5------4h5-----------2p0-----------------------------------|
E|----------------------------------------3-0-3-0--------------------------|
Tap to rate this tab
# A B C D E F G H I J K L M N O P Q R S T U V W X Y Z