Song name
# A B C D E F G H I J K L M N O P Q R S T U V W X Y Z

Alan Jackson - Small Town Southern Man tab

Help us improve GuitareTab! Take a short survey!
Drop D Tuning and Capo 1st Fret

(Keep in mind, the frets on this tab are numbered with taking in concideration that a
is on the 1st fret.)

/ Slide
P Pull Off
H Hammer On

Chords: G, D, A


  (Intro)
E|---------------------------------------------------------------------|
B|---------------------------------------------------------------------|
G|---------------------------------------------------------------------|
D|-2/4/2-0----0-----------2/4/2-0----0------0----2/4/2-0----0----------|
A|---------0H2---2P0--------------0H2---2P0--------------0H2---2P0-----|
D|-------------------0---------------------------------------------0---|

E|-------------------------|
B|-------------------------|
G|-------------------------|
D|-2/4/2-0-2-2-4/2-0-----0-|
A|-------------------2-0---|
D|-------------------------|
Related for Small Town Southern Man tab