Song name
# A B C D E F G H I J K L M N O P Q R S T U V W X Y Z

Alan Jackson - Sissys Song tab

Help us improve GuitareTab! Take a short survey!
-------------------------------------------------------------------------
                      Sissy's Song - Alan Jackson
-------------------------------------------------------------------------

Intro:
e|--*5-5-5-5-3---3--*5-5-5-5-3-----|-------------------------0-------|
B|-------------6---------------6-5-|-3-----------3---------1---1-----|
G|---------------------------------|-----------5---------0-----------| x2
D|-3-------------------------------|-------------------2---------0-2-|
A|-----------------3---------------|-----------------3---------------|
E|---------------------------------|---------------------------------|

*pre-slide from 3rd fret
Related for Sissys Song tab