Song name
# A B C D E F G H I J K L M N O P Q R S T U V W X Y Z

Alan Jackson - Country Boy tab

-------------------------------------------------------------------------------
                       COUNTRY BOY - Alan Jackson
-------------------------------------------------------------------------------
Tabbed by: Barry Miles

Great song, new album kicks ass.

  Intro Lick       Main Riff
                   E5       D      A
e|---------------|-------------------------|
B|---------------|----0--------------------|
G|---------------|----2/4------------------|
D|-------5-------|-------------------------|
A|-2/5-7---7-5---|-----------4/5---5\4-0---|
E|-------------7-|-0-----------------------|

(E5 = 022X00)

Verse:
E5               D          A
 Excuse me ma’am, I saw you walkin’
E5               D          A
 I turned around, I’m not a stalker
E5                D           A
 Where you going? Maybe I can help you
E5                        D             A
 My tank is full, and I’d be obliged to take you

Chorus:
             E5                      D       A
‘Cause I’m a country boy, I’ve got a 4-wheel drive
E5                     D              A
 Climb in my bed, I’ll take you for a ride
E5               D             A
 Up city streets, down country roads
E5                       D         A              E5
 I can get you where you need to go, ’cause I’m a country boy

Verse:
You sure look good, sittin’ in my right seat
Buckle up, I’ll take you through the five speeds
Wind it up, or I can slow it way down
In the woods or right uptown

Chorus

  First Guitar Solo
e|-------------------------|------------------0------0-|
B|--2b-2---0-2-0-2b--2--b--|--2b-2---0-2b--------------|
G|--2b-2---0-2-0-2b--2--b--|--2b-2---0-2b-2b----2~-----|
D|-------------------------|---------------------------|
A|-------------------------|---------------------------|
E|-------------------------|---------------------------|

e|-----0-----------------------|---------------------------5---5--|
B|-----------------------------|--------------------3---5br--5-5b-|
G|-2~----4p2p0-----------------|------------0---2/4---4-----------|
D|-------------2p0---------0h2-|-----0---2----2-------------------|
A|-----------------2p0---------|-0h2---2--------------------------|
E|---------------------3p0-----|----------------------------------|

Bridge:
B7
 Big 35’s whinin’ on the asphalt
A                                   A7
 Grabbin’ mud, and slingin’ up some red dirt
             E5
’cause I’m a country boy

Verse:
My muffler’s loud, dual Thrush tubes
I crank the music, the tone gets real good
Let me know when we’re gettin’ close
You can slide on out, or we can head on down the road

Chorus

   Dobro Solo (Done with a slide)
e|-----------------------|---------------------------3/5-|
B|-----------------------|---------5---5---5---5---5-----|
G|-----------------------|----2//4---4---4---4---4-------|
D|-2/5-/5\2--/5--5--5\2--|-/5----------------------------|
A|-----------------------|-------------------------------|
E|-----------------------|-------------------------------|

e|-3-----3///12------12--|---------------------------------------------------|
B|----5----------12------|-10/12--12-10----10----12\10-10----10--------------|
G|-----------------------|--------------12----12----------12----/14----------|
D|-----------------------|------------------------------------------14---14\-|
A|-----------------------|---------------------------------------------------|
E|-----------------------|---------------------------------------------------|

Bridge:
Bucket seats, soft as baby’s new butt
Lockin’ hubs, that’ll take you through a deep rut

Quiet Chorus:
e|------------------------------------------------------------------|
B|----0-----0---0--3-----3\2-----2p0--0-----0---0--3-----3\2-----2--|
G|----2/4-----4------2-------2--------2/4-----4------2-------2------|
D|-----------------0---0-------2-------------------0---0-------2----| x2
A|-------------------------0-------------------------------0--------|
E|-0-------------------------------0--------------------------------|

Fiddle Solo (Chorus + Bridge Chords)

Chorus

Outro: Main Riff then

  (soft w/fingers)
e|----0------0--------------0----------|
B|----0------0-------------0-----------|
G|----4\2----2/4----------1------------|
D|---------2-------x4----2-------------|
A|----------------------2--------------|
E|-0-------------------0---------------|



| /  slide up
| \  slide down
| h  hammer-on
| p  pull-off
| ~  vibrato
| +  harmonic
| x  Mute note
===============================================================================
Tap to rate this tab
# A B C D E F G H I J K L M N O P Q R S T U V W X Y Z