Song name
# A B C D E F G H I J K L M N O P Q R S T U V W X Y Z

Alan Jackson - Its Five Oclock Somewhere tab

Help us improve GuitareTab! Take a short survey!
-------------------------------------------------------------------------------
            IT'S FIVE O'CLOCK SOMEWHERE (INTRO) - Alan Jackson
-------------------------------------------------------------------------------
Tabbed by: Barry Miles

Tuning: Drop D

e|-------|-----------------|----------------|-----------------|--------------|
B|-------|-----------------|----------------|-----------------|--------------|
G|-------|-----------------|-------0--------|----/6-6-6\4-4-4-|-4\2----------|
D|-0-----|----2/4-4-4-\2-0-|-----0-4b-------|----/7-7-7\5-5-5-|-5\4---4------|
A|---2-0-|-----------------|-0h2------------|--0--------------|-------5------|
E|-------|-0---------------|----------------|-----------------|--------------|

e|----------------|------------|
B|----------------|------------|
G|----------------|------------|
D|--0----0--------|------------|
A|----4b---2-0----|------------|
E|-------------2b-|-0----------|


| /  slide up
| \  slide down
| h  hammer-on
| p  pull-off
| ~  vibrato
| +  harmonic
| x  Mute note
===============================================================================

Related for Its Five Oclock Somewhere tab