Guitaretab - guitar tabs
Song name
# A B C D E F G H I J K L M N O P Q R S T U V W X Y Z

Alan Jackson - Sissys Song tab

Sissy's Song - Alan Jackson

This is a great song.

This is my first ever tab so bear with me.
The solo is done on the 1st, 2nd, and 3rd, and 4th strings.

It's pretty easy.

h - Hammer on
/ - Slide Up
\ - Slide Down
v - Vibrato/Shake
[ Tab from: http://www.guitaretab.com/a/alan-jackson/186999.html ]
E--------5h6h8--8--8--8--10-----------------8-----5---5---5\------------------|
B-----------------------------8/10---8------8-----6---6---6\------5--6--5-----|
G-----------------------------------------------------------------5--5--5-----|
D-----------------------------------------------------------------------------|
A-----------------------------------------------------------------------------|
E-----------------------------------------------------------------------------|

E--------------------------------------------------------------------------------|
B----------5--6--5---------------------------------------------------------------|
G----5--7-----------7--5---------------------------------------------------------|
D-------------------------5/7vvvv------------------------------------------------|
A--------------------------------------------------------------------------------|
E--------------------------------------------------------------------------------|


That's it!

Email me with suggestions or comments!
Related for Sissys Song tab