Song name
# A B C D E F G H I J K L M N O P Q R S T U V W X Y Z

Alan Jackson - Pop A Top tab

Pop a Top(Solo)
Alan Jackson

|------------------------------------------------------------|
|-----------------------------------------/5-----------------|
|---------------------2-------6--5--3--4------5--------------|
|------------2-----------4--5--------------------5-----------|
|--3--1--2------4--5--------------------------------7--------|
|------------------------------------------------------------|


|-------------------------8--12--8--10--(10)\-------10-----------13----|
|---------------------10-----------------------10b------10br--8--------|
|------------9--(9)b---------------------------------------------------|
|--------10------------------------------------------------------------|
|--7/12----------------------------------------------------------------|
|----------------------------------------------------------------------|

At the 2 notes together you gotta Strum up

|------------------------------------------------------------|
|--15br--------------------8--8-------8----------------------|
|--14br--12--x--10--(10)b--------7/9-----9\7p5-----5---------|
|-----------------------------------------------7------------|
|------------------------------------------------------------|
|------------------------------------------------------------|

|----------------------------7-----------7-----------3--4--------|
|----------7-----10\7--7--8-----8-----------8--------------5-----|
|--5/7--------7--------------------7-----------7-----------------|
|-------7-----------------------------9-----------9--------------|
|----------------------------------------------------------------|
|----------------------------------------------------------------|

|----------------------------------------------|
|----------------------------------------------|
|--4-------------------------------------------|
|-----7--5h6--2-----------------2--------------|
|----------------5--2--------------3--2--0-----|
|----------------------5--3--4-----------------|
Tap to rate this tab
 
# A B C D E F G H I J K L M N O P Q R S T U V W X Y Z