Song name
# A B C D E F G H I J K L M N O P Q R S T U V W X Y Z

Alan Jackson - Ill Go On Loving You tab

|-------------------------|-------------------------|
|--------8------8---------|--8----------------------|
|--------8--10--8----10---|--8--10---10----------8--|
|-------10-----10---------|-10--10---10-------10----|
|---10--------------------|----------11----11-------|
|-------------------------|-------------------------|


|-------------------------|-------------------------|
|--------8------8---------|--8----------------------|
|--------8--10--8----10---|--8--10----8------7----8-|
|-------10-----10---------|-10--10---10-----10---10-|
|---10--------------------|-------------------------|
|-------------------------|-------------------------|


|-------------------------|-------------------------|
|--------8------8---------|-8---8--------------4----|
|--------8--10--8----10---|-7---8-----8-----7--5----|
|-------10-----10---------|-8--10----10-----8-------|
|---10--------------------|-------------------------|
|-------------------------|-------------------------|
Tap to rate this tab
# A B C D E F G H I J K L M N O P Q R S T U V W X Y Z