Song name
# A B C D E F G H I J K L M N O P Q R S T U V W X Y Z

Alan Jackson - Remember When tab

e----------15-14-15---------------12--14--15-15-15--12-10-|
B------15-------------12----------------------------------|
G------------------------12-------------------------------|
D---------------------------12----------------------------|
A---------------------------------------------------------|
E---------------------------------------------------------|


e----------15-14-15---------------12--14--15-15-15--12-10-|
B------15-------------12----------------------------------|
G------------------------12-------------------------------|
D---------------------------12----------------------------|
A---------------------------------------------------------|
E---------------------------------------------------------|




Its my first tab so be nice!
It sounds pretty close!
If you find or know of any good country love songs, let me know.
My girl loves it when i play her a great love song.


~Country Rules~
Tap to rate this tab
 
# A B C D E F G H I J K L M N O P Q R S T U V W X Y Z