Song name
# A B C D E F G H I J K L M N O P Q R S T U V W X Y Z

Alan Jackson - Livin On Love tab

Intro
E----------------------------------------------------------------------|
B----------------------------------------------------------------------|
G----------------------------------------------------------------------|
D--0------------------2-----------------2--------------------------2---|
A-----2b--0--0--3/4----------------3/4-----2b--0--0------0-------------|
E------------------------2b--0--0--------------------3b-----2b--0------|


Say some vows and spread their wings...
E----------------|
B----------------|
G----------7-----|   Fill 1 (Must have right timing for the slide)
D-------7--------|
A--5/7-----------|
E----------------|


Settle down with just what they need, Livin' on love...
E------------------------------------|
B--5---------------------------------|
G-----4b-----------------------------|  Fill 2
D----------5br-----------------------|
A----------------7-------7-----------|
E-------------------7/9-----9\7--0---|


She don't care 'bout what's in style...
E--------------------|
B--------------------|
G--------------------|  Fill 3
D--2-----------------|
A------------2b--0---|
E-----2b--0----------|


She just likes the way he smiles...
E------------------------|
B------------------------|
G------------------------|  Fill 4
D-------0--0--0----------|
A--3/4----------4\2--0---|
E------------------------|


It takes more than marble and tile, Livin' on love
E-------------------------|
B-------------------------|
G-------------------------|  Fill 5 (last one before Chorus)
D--4br-p2-----2-----------|
A----------4-----4\2--0---|
E-------------------------|


It sounds simple...|that's what you're thinkin'...
E----------------|-----------------|
B----------------|-----------------|
G---------2------|-----------------|
D----------------|4b--2--4---------|
A--0--/4---------|----------2b--0--|
E----------------|-----------------|


But love can walk through fire without blinkin'...
E------------------------|
B------------------------|
G------------------------|  Fill 4
D-------0--0--0----------|
A--3/4----------4\2--0---|
E------------------------|


Livin' on Love...
E--------------------------------------|
B--------------------------------------|
G--------------------------------------|  End of chorus Fill
D-------------------------2--2---------|
A--2b--0--h2h4p2-----2/4--------2b--0--|
E-----------------0--------------------|
__________________________________________
                                          |
{No guitar fills during solo break...}    |
                                          |
{No Guitar fills during verses either...} |
__________________________________________|


It sounds simple|you're thinkin'|without blinkin'...|Get enough...
E---------------|---------------|-------------------|----------|
B---------------|-2-------------|-------------------|----------|
G---------2-----|----4b---------|-4b--x--x--2-----2-|----------|
D---------------|---------------|--------------x----|-4b--2----|
A--0--/4--------|---------------|-------------------|----------|
E---------------|---------------|-------------------|----------|

Livin' On Love...
E-------------------------|
B-------------------------|
G-------------------------|
D---------2--4--2---------|
A--0--/4-----------2b--0--|
E-------------------------|


It sounds simple that's what you're thinkin'...
E---------|
B---------|
G---------|
D---------|
A---------|
E--2b--0--|


But love can walk through fire without blinkin'...
E------------------------|
B------------------------|
G------------------------|  Fill 4
D-------0--0--0----------|
A--3/4----------4\2--0---|
E------------------------|


E---------------------|
B---------------------|
G---------------------|  End Fill
D----------2----------|
A--0--2/4-----2b--0---|
E---------------------|
Tap to rate this tab
 
# A B C D E F G H I J K L M N O P Q R S T U V W X Y Z