Song name
# A B C D E F G H I J K L M N O P Q R S T U V W X Y Z

Alan Jackson - Midnite In Montgomery tab

Midnight in montgomery
Alan Jackson


e-----0-h1-1---0-h1-0----0----0-|
B----3--------3---------1----1--|
G---2--------2---------0----0---|
D--0--------0---------2----2----|   REPEAT 3 TIMES
A--------------------3----3-----|
E-------------------------------|

e------1----1----0-h1-1---0-h1-1-|
B-----1----1----3--------3-------|
G----3----3----2--------2--------|
D---3----3----0--------0---------|
A--1----1------------------------|
E--------------------------------|

e------0-h1-1---0-h1-0---0----0--|
B-----3--------3--------1----1---|
G----2--------2--------0----0----|
D---0--------0--------2----2-----|
A--------------------3----3------|
E--------------------------------|

e------1----3----0----0----------|
B-----1----1----0----0-----------|
G----3----3----2----2------------|
D---3----3----2----2-------------|
A--1----1----0----0--------------|
E--------------------------------|
Tap to rate this tab
# A B C D E F G H I J K L M N O P Q R S T U V W X Y Z