Song name
# A B C D E F G H I J K L M N O P Q R S T U V W X Y Z

Alan Jackson - A Womans Love tab

A Woman's Love

Intro
b=bend
h=hammer-on

e--------------------------------------------------------------------------|
B-------5-7b9-7b9-7b9b7-5-7---5---7b9b7-5-7---5------------------------5---|
G---4-6---------------------6---4-----------6---------4-4---4--4-4-4h6-----|
D-----------------------------------------------4-4h6-----6----------------|
A--------------------------------------------------------------------------|
E--------------------------------------------------------------------------|

e--------------------------------------------------------------------------|
B---7b9-7b9-7b9b7-5-7---5---7b9b7-5-7---5-------5-5---5--------------------|
G---------------------6---4-----------6---4-4h6-----6----------------------|
D--------------------------------------------------------------------------|
A--------------------------------------------------------------------------|
E--------------------------------------------------------------------------|
Tap to rate this tab
# A B C D E F G H I J K L M N O P Q R S T U V W X Y Z