Alan Menken - Healing Incantation tab

Alright, first tab! (I know, no one cares, right? ^.^). This is the melody to
Healing Incantation from Disney's Tangled. Enjoy.

         Flo    -  wer, gleam  and  glow.  Let  the  pow  -  er  shine.

E|----------7-----------------------------------7---------------------------|
B|---7------------5------7------4---------7-----------5------7-----4--------|
G|--------------------------------------------------------------------------|
D|--------------------------------------------------------------------------|
A|--------------------------------------------------------------------------|
E|--------------------------------------------------------------------------|

   Make  the  clock re  -  verse.   Bring  back what  once  was   mine.

E|-5------3------2-----3-------0-----------------------------0------2-------|
B|---------------------------------------0------2-----4-------------------4-|
G|--------------------------------------------------------------------------|
D|--------------------------------------------------------------------------|
A|--------------------------------------------------------------------------|
E|--------------------------------------------------------------------------|

          Heal   what  has  been  hurt.  Change  the  fates   de   -  sign.

E|------------7-----------------------------------7-------------------------|
B|----7-------------5------7-------4--------7------------5-----7-------4----|
G|--------------------------------------------------------------------------|
D|--------------------------------------------------------------------------|
A|--------------------------------------------------------------------------|
E|--------------------------------------------------------------------------|

     Save  what   has    been    lost.    Bring   back   what  once    was   mine;

E|--5------3------2------3------0----------------------------0------2-----3-|
B|---------------------------------------0------2------4--------------------|
G|--------------------------------------------------------------------------|
D|--------------------------------------------------------------------------|
A|--------------------------------------------------------------------------|
E|--------------------------------------------------------------------------|


         what        once           was           mine.

E|--------------------------------------------------------------------------|
B|-----------2-------3-------0----------------------------------------------|
G|----0---------------------------------------------------------------------|
D|--------------------------------------------------------------------------|
A|--------------------------------------------------------------------------|
E|--------------------------------------------------------------------------|
Tap to rate this tab
 
# A B C D E F G H I J K L M N O P Q R S T U V W X Y Z