Song name
# A B C D E F G H I J K L M N O P Q R S T U V W X Y Z

Alan Parsons Project - Children Of The Moon tab

Key: Am
Album: Eye In The Sky

Solo:

E |----------------------------------------------------------------|
B |-------------------------8-----------8--------------------------|
G |---------5----5~-----7h9---9-7/5-------5~-----------------------|
D |---7~-----7h5--------------------7-5-----------10h9-7-7~--------|
A |----------------------------------------------------------------|
E |----------------------------------------------------------------|

E |---9b10--8-12-----9b10--8-12---------12-15-12-------------------|
B |------------------------------15-13-----------------------------|
G |----------------------------------------------------------------|
D |----------------------------------------------------------------|
A |----------------------------------------------------------------|
E |----------------------------------------------------------------|

E |-------------------------9b10-9b10---12~----14b15-14b15--16b17--|
B |----------------------------------------------------------------|
G |---7b8-9b11-7\5-5\----------------------------------------------|
D |----------------------------------------------------------------|
A |----------------------------------------------------------------|
E |----------------------------------------------------------------|
Tap to rate this tab
# A B C D E F G H I J K L M N O P Q R S T U V W X Y Z