Song name
# A B C D E F G H I J K L M N O P Q R S T U V W X Y Z

Alan Parsons Project - Silence And I tab

(4:14)
E |----------------------------------------------------|
B |--------------11-13b14r13-11------------------------|
G |---9b10---10-----------------13-11-10---------------|
D |--------------------------------------13-11-10-11---|
A |----------------------------------------------------|
E |----------------------------------------------------|

E |-----------------------------------11-------------------|
B |----------------------11-14-13-14-----13-14---///18\\\--|
G |---------10-13-11-13------------------------------------|
D |---11-13------------------------------------------------|
A |--------------------------------------------------------|
E |--------------------------------------------------------|

E |----------------------------------------------13-14-13-11h13----------|
B |---16b18r16-13---------------------14---14-16-----------------16-14---|
G |---------------14-----------14-17-------------------------------------|
D |------------------16-15-16--------------------------------------------|
A |----------------------------------------------------------------------|
E |----------------------------------------------------------------------|


(5:52)
E |-------------------------------------------|
B |-------------------------------------------|
G |---(13h14)-15---15-17-15-17---17-18-17-18--|
D |-------------------------------------------|
A |-------------------------------------------|
E |-------------------------------------------|

E |-------------------------------------------------|
B |---------18-19-18h19p18h19p18-----18-------------|
G |---18-20----------------------20------18-17-15---|
D |-------------------------------------------------|
A |-------------------------------------------------|
E |-------------------------------------------------|
Tap to rate this tab
# A B C D E F G H I J K L M N O P Q R S T U V W X Y Z