Song name
# A B C D E F G H I J K L M N O P Q R S T U V W X Y Z

Alan Parsons Project - Youre Gonna Get Your Fingers Burned tab

E |-------------------------------------------------|
B |-------------------------------------------------|
G |-----------------------------------12------------|
D |---12/14-12/14-12/14p12---------14----14p12------|
A |------------------------15-15---------------15---|
E |-------------------------------------------------|

E |-----------------------------------------------------|
B |-----------------------------------------------------|
G |---14-12------------------------------12-------------|
D |---------14b(1/2)-14b(1/2)-12----12------------------|
A |-----------------------------15----15------15---/19--|
E |-----------------------------------------------------|

E |-------------------------------------------------|
B |---17--------------------15-15-15----------------|
G |------17-14-16-14-16-/16----------16\14-----17---|
D |----------------------------------------17-------|
A |-------------------------------------------------|
E |-------------------------------------------------|

E |-------------------------------------|
B |--------------------------------17---|
G |------15-----------------17-19-------|
D |---17----14----14-17-19--------------|
A |------------17-----------------------|
E |-------------------------------------|

E |-------------------------------------------------17-15---------------|
B |---19-17-14-14-17-14-19-17-14-14-17-14-19p17-14--------19-17-15-14---|
G |---------------------------------------------------------------------|
D |---------------------------------------------------------------------|
A |---------------------------------------------------------------------|
E |---------------------------------------------------------------------|

E |---------------------------------------------------------------------|
B |---17-15-14------------------------14-17-17-17-17\\\14-----------17--|
G |------------16-14----------19\\\-----------------------16-14-16------|
D |------------------17-16-19-------------------------------------------|
A |---------------------------------------------------------------------|
E |---------------------------------------------------------------------|

E |----------------------------------------------------------------17---|
B |-----------------------------------------------------------19--------|
G |------16----14----16b17r16-14-16-17--16b17r16-14----14-19------------|
D |---14----14----14-------------------------------16-------------------|
A |---------------------------------------------------------------------|
E |---------------------------------------------------------------------|

E |---17b(1/2)-17b(1/2)-19---|
B |--------------------------|
G |--------------------------|
D |--------------------------|
A |--------------------------|
E |--------------------------|
Tap to rate this tab
# A B C D E F G H I J K L M N O P Q R S T U V W X Y Z