Song name
# A B C D E F G H I J K L M N O P Q R S T U V W X Y Z

Alan Parsons Project - What Goes Up tab

Album: Pyramid

Main Part:

E |--------------------------------|
B |--------------------------------|
G |--------------------------------|
D |-------1---------------1-3-0----|
A |---3-3-----1-1-3---3-3----------|
E |--------------------------------|

Solo:

E |---------------------------------------------|
B |---------------------------------------------|
G |---12~---12-10-------------------------------|
D |---------------10----------------------------|
A |------------------11-10----------11-13-10~---|
E |-------------------------13-8~---------------|

E |---------------------------------------------|
B |---------------------------------------------|
G |---12~---10----------------------------------|
D |------------10-------------------------10~---|
A |----------------11-10------------11-13-------|
E |------------------------13-8~--8-------------|

E |-------------------------------------------------------|
B |-------------------------------------------------------|
G |---12--------------------------------------------------|
D |------14----15-12-------12----------12-----------------|
A |---------15-------12-------15-14-15--------------------|
E |---------------------13-----------------13-15-13-12~---|

E |----------------------------------------------17~---|
B |----------------------------15-17-17b18r17-15-------|
G |----------------------------------------------------|
D |------12-14-14~---12h14-15--------------------------|
A |---15-----------------------------------------------|
E |----------------------------------------------------|

E |---17-15-------------15-17-19-17-15-22b24~---|
B |---------18r17-15~---------------------------|
G |---------------------------------------------|
D |---------------------------------------------|
A |---------------------------------------------|
E |---------------------------------------------|

E |---19-------------|
B |------19----------|
G |---------20-------|
D |------------21~---|
A |------------------|
E |------------------|
Tap to rate this tab
 
# A B C D E F G H I J K L M N O P Q R S T U V W X Y Z