Song name
# A B C D E F G H I J K L M N O P Q R S T U V W X Y Z

Alan Parsons Project - Psychobabble chords

Album: The Eye In The Sky

Main Riff:

E |--------------------------------------------|
B |----------17-----20-19-17--------17-17-17---|
G |---16-19-----19-----------16-19-------------|
D |--------------------------------------------|
A |--------------------------------------------|
E |--------------------------------------------|

Solo:

E |---------------------------------------------|
B |---------------------------------------------|
G |---15\11-------------------------------------|
D |---------15-13--13---------13-13-----13-13---|
A |---------------------13/15--------15---------|
E |---------------------------------------------|

E |--------------------------------------------|
B |-----------------------------13--------11---|
G |--------------------------------10----------|
D |--------11-11--------13-\11--------13-------|
A |---9/11---------9/11------------------------|
E |--------------------------------------------|

E |------------------------------------|
B |------------------------------------|
G |----------------------11----10------|
D |------11-13-11-13-11-----13----13---|
A |---13-------------------------------|
E |------------------------------------|

E |---------------------------------------------------------------|
B |---------------------------------------------------------------|
G |----------13-----13-----13/15-15-13-15-13-11-16---16-16\\\-----|
D |---13-13-----13-----13----------------------------15-----------|
A |---------------------------------------------------------------|
E |---------------------------------------------------------------|
Tap to rate this tab
# A B C D E F G H I J K L M N O P Q R S T U V W X Y Z