Song name
# A B C D E F G H I J K L M N O P Q R S T U V W X Y Z

Alan Silvestri - Forrest Gump tab

Submitted by: RobPutz
Date: 11/06/2008


--------------3-----------0-0---0-------0-0---0-5-2------------3----0-2-3-3-0-3-0-|
-0-1-3-3-0--3---3-0---1-3-----1-----1-3-----1-------3--0-1-3-3---3----------------|
----------------------------------------------------------------------------------|
----------------------------------------------------------------------------------|
----------------------------------------------------------------------------------|
----------------------------------------------------------------------------------|

3-0-----0-0---0-------0-0-------------|
----1-3-----1-----1-3-----1---0-1-----|
----------------------------2-----2-0-|
--------------------------------------|
--------------------------------------|
--------------------------------------|


HAVE FUN!
Tap to rate this tab
 
# A B C D E F G H I J K L M N O P Q R S T U V W X Y Z