Song name
# A B C D E F G H I J K L M N O P Q R S T U V W X Y Z

Alan Silvestri - Forrest Gump Theme tab

----------------------------------------------------------------------------
			     Forrest Gump Theme (Intro)
----------------------------------------------------------------------------
Tabbed by: Eduard
Email:eduardfriesen1@gmx.de

It's just the intro, but I think it's quite right.

e|-------------------------------------------------------------------------|
B|-------------------------------------------------------------------------|
G|-------------------------------------------------------------------------|
D|-----0--0--0-------0--0--0-------0--0--0-------0--0--0-------------------|
A|-------------------------------------------------------------------------|
E|--3-------------3-------------3-------------3----------------------------|


e|-------------------3------------------0-0-----0--------------------------|
B|---0-1--3-3--0--3-----3--0-------1-3-------1-----------------------------|
G|-------------------------------------------------------------------------|
D|-------------------------------------------------------------------------|
A|-------------------------------------------------------------------------|
E|-------------------------------------------------------------------------|


e|---------0-0-----0--5--2---------------------3---------------------------|
B|---1-3--------1-----------3--------0-1--3-3-----3------------------------|
G|-------------------------------------------------------------------------|
D|-------------------------------------------------------------------------|
A|-------------------------------------------------------------------------|
E|-------------------------------------------------------------------------|





| /  slide up
| \  slide down
| h  hammer-on
| p  pull-off
| ~  vibrato
| +  harmonic
| x  Mute note
Tap to rate this tab
# A B C D E F G H I J K L M N O P Q R S T U V W X Y Z