Song name
# A B C D E F G H I J K L M N O P Q R S T U V W X Y Z

Alan Silvestri - A Hero Comes Home tab

A Hero comes home Beowulf soundtrack
Capo on the 7th fret
tabbed by kim feenstra
(this song was actually played on a harp.)
-----------------------------------------|
-----------------------------------------|
----------1----------------------1-------|
-------0------0--------------0------0----|
----1------------1--------1------------1-|
-3----------------------3----------------|

--------------------------------------------------------|
--------------------------------------------------------|
-------0------------------------------------------------|
----1---------------1----------0---3---------------0----|
-3---------------3----------1--------------------1------|
--------------4-------------------------------3---------|
Just	      wait, though wide he may    roam

--------------------------------|
--------------------------------|
--------------------------------|
-------0----------1-------------|
----1----------3----------0---3-|
-3----------4----------1--------|
Al	      ways,   a hero comes

-----------------------------------------|
-----------------------------------------|
----------1----------------------1-------|
-------0------0--------------0------0----|
----1------------1--------1------------1-|
-3----------------------3----------------|
home.

He goes where no one has gone
But always a hero comes home

He knows of places unknown
Always a hero comes home

He goes where no one has gone
But always a hero comes home

outro (while singing "home"):
------------|
----------1-|
-------0----|
----1-------|
-3----------|
------------|
Tap to rate this tab
# A B C D E F G H I J K L M N O P Q R S T U V W X Y Z