Song name
# A B C D E F G H I J K L M N O P Q R S T U V W X Y Z

Alan Silvestri - Captain America Theme tab

Easy Tab With Regular Tune
I Used This Song To Tab ( http://www.youtube.com/watch?v=QDhAyA3djWQ )
Listen To The Song Help You With The Tab
***I Split The Song Up Into Three Parts:(Beginning, Middle, and End) To Help***

e|---------8-7-----------8-7-5-------------------------------|
B|---8-5-8---------8-5-8---------8---------------8-------8---|
G|-------------5-------------------555-555-7---5---555-5-----|
D|-----------------------------------------------------------|
A|-----------------------------------------------------------|
E|-----------------------------------------------------------|

e|--------------------------------------------------------------------------|
B|--------------------------------------------------------------------------|
G|--------------------------------------------------------------------------|
D|---5-888-7-5-3-0--5-888-7-5--5-888-7-8-10-12---10-10-8-10---12-12-10-12---|
A|--------------------------------------------------------------------------|
E|--------------------------------------------------------------------------|

e|-------------------------------------------------------------|
B|---------------------------------11-----------------11-------|
G|---------8-7------------8-7-5-------888-888-10----8----888---|
D|---8-5-8----------8-5-8--------------------------------------|
A|-------------6-----------------------------------------------|
E|-------------------------------------------------------------|
Tap to rate this tab
# A B C D E F G H I J K L M N O P Q R S T U V W X Y Z