Guitaretab - guitar tabs
Song name
# A B C D E F G H I J K L M N O P Q R S T U V W X Y Z

Alanis Morissette - That I Will Be Good tab

That I Would Be Good

e--------------------------------------------------------------
B--------------------------------------------------------------
G--------------------------------------------------------------
D--------------------------------------------------------------
A--------------------------------------------------------------
E-----9----9--------9----9---------9----9---------9----9-------


e--------------------------------------------------------------
B--------------------------------------------------------------
G--------------------------------------------------------------
D--------------------------------------------------------------
A-------------5---5--------------------------------------------
E---9---9----------------7---7------0---0----------------------
That I would be good even if I did nothing
That I would be good even if I got the thumbs down

e ------------------------------------------------------
B-------------------------------------------------------
G-------------------------------------------------------
D-------------------------------------------------------
A-------------5---5-------------------------------------
E---9---9--------------7---7--5--0---0------------------
That I would be good if I got and stayed sick

e ---------------------------------------------------
B----------------------------------------------------
G----------------------------------------------------
D----------------------------------------------------
A------------5---5-----------------------------------
E---9---9-------------5---5-----0---0----------------
That I would be good even if I gained ten pounds

             C#m        D         Bm       E   
That I would be fine even if I went bankrupt
               C#m      D                   Bm     E
That I would be good if I lost my hair and my youth
               C#m        D             Bm    A    E
That I would be great if I was no longer a queen
               C#m        D             A    E
That I would be grand if I was not all knowing

                 A         D          Bm      E
That I would be loved even when I numb myself
                 A        D             Bm     E
That I would be good even when I'm overwhelmed
                A          D          Bm   A  E
That I would be loved even when I was fuming
                A          D            A    E
That I would be good even when I was clingy

                 C#m     D           Bm     E
That I would be good even if I lost sanity
                 C#m       D            Bm      E
That I would be good wheter with or without you




Song:THAT I WOULD BE GOOD 
Artist:Alanis Morissette
Album:Supposed Former Infatuation Junkie(if you want
 any tabs from this album,just email me)
Tabbed by Rafael Amaral(ramaral@net.em.com.br)

Chords:
A:-002220-
Dmaj7+:-000220-(if you have problems with this, just play a D)
Bm:-224432-
E:-022100
F#m:244222

Verse:
You should get the rythmn by listening to the cd.
    A     Dmaj7+    Bm     E
E--------------------------------
B--2-2-----2-2------3-3----0-0---
G--2-2-----2-2------4-4----1-1---
D--2-2-----0-0------4-4----2-2---
A--------------------------------
E--------------------------------

                A         Dmaj7+    Bm     E
that I would be good even if I did nothing
                A         Dmaj7+              Bm      E
that I would be good even if I got the thumbs down
               F#m        Dmaj7+         Bm      A   E
that I would be good if I got and stayed sick
                F#m       Dmaj7+          A         E
that I would be good even if I gained ten pounds
                A         Dmaj7+        Bm      E
that I would be fine even if I went bankrupt
                A        Dmaj7+               Bm    E
that I would be good if I lost my hair and my youth
                F#m        Dmaj7+        Bm    E
that I would be great if I was no longer queen
                F#m        Dmaj7+         A         E
that I would be grand if I was not all knowing

Verse 2(the same)
that I would be loved even when I numb myself
that I would be good even when I am overwhelmed
that I would be loved even when I was fuming
that I would be good if I was clingy
that I would be good even if I lost sanity
that I would be good
whether with or without you
[ Tab from: http://www.guitaretab.com/a/alanis-morissette/21578.html ]
Related for That I Will Be Good tab
That I Will Be Good chords by Alanis Morissette