Alanis Morissette - Orchid tab

E-------4----------4--------------1----------1-------|
B----2-----2-----2-----2-----------------------------|
G------------------------------3-----3-----3-----3---|
D-4-----------4----------4--1-----------1----------1-|    2x
A----------------------------------------------------|
E----------------------------------------------------|

If this is too hard, try this:

E-------5----------5--------------2----------2-------|
B----3-----3-----3-----3-------0-----0-----0-----0---|
G----------------------------------------------------|
D-5-----------5----------5--2-----------2----------2-|    2x
A----------------------------------------------------|
E----------------------------------------------------|

This is maybe higher then normal, but it's easier.

I will make soon the full version.
Note that this is my first tab I made.
Tap to rate this tab
 
# A B C D E F G H I J K L M N O P Q R S T U V W X Y Z