Song name
# A B C D E F G H I J K L M N O P Q R S T U V W X Y Z

Alanis Morissette - Ur tab

-------------------------------------------------------------------------------
			    UR - Alanis Morissette
-------------------------------------------------------------------------------
Tabbed by: Sierra Prasada
Email: sierraprasada@gmail.com

Tuning:Standard

        G                A minor         C           Dsus4
e|---------3----------3---------3-------------------3------------------------|
B|------3-----------1----------------------------1---------------------------|
G|---0------------------------0------------0-2h------------------------------|
D|---------------------------------------------------------------------------|
A|----------------0---------3------------------------------------------------|
E|---------------------------------------------------------------------------|
Tap to rate this tab
# A B C D E F G H I J K L M N O P Q R S T U V W X Y Z