Guitaretab - guitar tabs
Song name
# A B C D E F G H I J K L M N O P Q R S T U V W X Y Z

Alanis Morissette - Are You Still Mad tab

The song is played with pretty much the same four notes. Play each note as a quarter 
throughout the entire song. Once you get the rhythm it's really easy.


Intro:
e|----14-13-9---14-13-9----|
B|--9----------9-----------|
G|-------------------------| X2
D|-------------------------|
A|-------------------------|
E|-------------------------|

Verse/Chorus:
e|----14-13-9---14-13-9----|
B|--9----------9-----------|
G|-------------------------|
D|-------------------------|
A|-------------------------|
E|-------------------------|

Are you still mad I kicked you out of bed
Are you still mad I gave you ultimatums
Are you still mad I compared you to all my 40 year old male friends
Are you still mad I shared our problems with everybody

Are you still mad I had an emotional affair
Are you still mad I tried to mould you into who I wanted you to be
Are you still mad I didnít trust your intentions

Of course you are (of course you are)
Of course you are (of course you are)
Of course you are (of course you are)
Of course you are (of course you are)

After Chorus:
e|--16-14-13-11-13-9-------|
B|-------------------------|
G|-------------------------|
D|-------------------------|
A|-------------------------|
E|-------------------------|
[ Tab from: http://www.guitaretab.com/a/alanis-morissette/70233.html ]
Are you still mad that I flirted wildly
Are you still mad I had a tendency to mother you
Are you still mad that I had one foot out the door
Are you still mad that we slept together even after we had ended it

Of course you are (of course you are)
Of course you are (of course you are)
Of course you are (of course you are)
Of course you are (of course you are)

After this chorus play this twice:
e|----14-13-9---12-11-7----|
B|--9----------9-----------|
G|-------------------------| X2
D|-------------------------|
A|-------------------------|
E|-------------------------|

e|--16-14-13-11-13-9-------|
B|-------------------------|
G|-------------------------|
D|-------------------------|
A|-------------------------|
E|-------------------------|

Are you still mad wore the pants most of the time
Are you still mad that I seem to focus only on your potential
Are you still mad that I threw in the, the towel
And are you, Are you still mad that I gave up long before you did

Of course you are (of course you are)
Of course you are (of course you are)
Of course you are (of course you are)
Of course you are (of course you are)

(play hormonic)
e|---16-14-13-11-13-9------|
B|-------------------------|
G|-------------------------|
D|-------------------------|
A|-------------------------|
E|-------------------------|

Outro:
e|----14-13-9---12-11-7----|
B|--9----------9-----------|
G|-------------------------| X4
D|-------------------------|
A|-------------------------|
E|-------------------------|

e|---9~---|
B|---9~---|
G|--------|
D|--------|
A|--------|
E|--------|

Enjoy :)
-CK
Related for Are You Still Mad tab